Song name
# A B C D E F G H I J K L M N O P Q R S T U V W X Y Z

Secret And Whisper - The Actress tab

Artist: Secret & Whisper
Song: The Actress
Album: Great White Whale

Hey I'm posting a tab of this one too...this one I use for when I go busking,
so it's not 100% right, but I try to stay as true to the original as I can.
For the rhythm, listen to the song, but I usually improvise the rhythms as
it's hard to sing this one at the same time...
Enjoy, and look out for the full tab coming soon!

Intro/Verse (0:00-0:39)
D|---0----0---|
A|---0----0---|
G|--13---13---|
D|--11----x---|
G|---0---11---|
C|---0---11---|
"We recognise she's..."

Prechorus
D|--3----5----3----5----7--|
A|--0----0----0----0----0--|
G|--4----5----4----5----5--|
D|--5----5----5----5----5--|
G|--0----0----0----0----0--|
C|--0----0----0----0----0--|
"...disappear..."

1st Chorus
D|--3----5----3----5----7--|
A|--0----0----0----0----0--|
G|--4----5----4----5----5--|
D|--5----5----5----5----5--|
G|--0----0----0----0----0--|
C|--0----0----0----0----0--|
"The regular showing..."

Back to verse, then

2nd Chorus
D|--0----0----0----0----0----0--|--0----0----0----0--|
A|--9----0----3----9----0----5--|--0----0----0----0--|
G|--9----6----6----9----6----7--|--6----6----6----7--|
D|--7----7----4----7----7----4--|--7----6----7----7--|
G|--0----4----0----0----4----0--|--4----4----0----0--|
C|-------4----0---------4----0--|--4----4----0----0--|
"The regular showing..."         "Is slowly quieting"

Bridge
D|--0----0----0--|
A|--0----0----0--|
G|--6----7----7--|
D|--7----7----7--|
G|--4----5----0--|
C|------------0--|
"Just for one night..."

Chorus, then

Ending
D|--0----0----0----0--|
A|--0----0----0----0--|
G|--6----6----6----7--|
D|--6----7----7----7--|
G|--4----4----0----0--|
C|--4----4----0----0--|

Tap to rate this tab
 
# A B C D E F G H I J K L M N O P Q R S T U V W X Y Z