Song name
# A B C D E F G H I J K L M N O P Q R S T U V W X Y Z

Secret And Whisper - Great White Whale tab

Secret and Whisper
Great White Whale


Solo/Bridge Part
   1  +  2  +  3  +  4  +  1  +  2  +  3  +  4  + 
e|-8-----8--------------8-----8-----8-------------|
B|------------------------------------------------|
G|-------------5--7--8-----------------5--7--8--5-|
D|------------------------------------------------|
A|------------------------------------------------|
E|------------------------------------------------|

   1  +  2  +  3  +  4  +  1  +  2  +  3  +  4  + 
e|-6-----6--------------6-----6-----6-------------|
B|------------------------------------------------|
G|-------------5--7--8-----------------5--7--8--5-|
D|------------------------------------------------|
A|------------------------------------------------|
E|------------------------------------------------|

   1  +  2  +  3  +  4  +  1  +  2  +  3  +  4  + 
e|----------------------------------------11-10-11|
B|-8-----8-----------------6-----6-----6----------|
G|-------------5--7--8--5-------------------------|
D|------------------------------------------------|
A|------------------------------------------------|
E|------------------------------------------------|
Tap to rate this tab
 
# A B C D E F G H I J K L M N O P Q R S T U V W X Y Z