Secret Chiefs 3 - Renunciation tab

Secret Chiefs 3 - Renunciation (Capo on 1st)
Tabbed by: Neil R. Rose
neil.damage.done@gmail.com

This tab is not very accurate. I kind of laid down just the outline of it. I'm hoping 
can enhance the song. Any help would be greatly appreciated.
Any info contact: neil.damage.done@gmail.com

Capo on 1st

Intro
e|-----------0----0-----------------0----0-----------------------------------|
B|--------0----------0-----------0----------0--------------------------------|
G|-----2----------------2-----2----------------2-----------------------------|
D|--3----------------------3----------------------3--------------------------|
A|---------------------------------------------------------------------------|
E|---------------------------------------------------------------------------|

Section 1
e|----------------5----------------------------------------------------------|
B|--0---3--5-6-5-----6---5--6--5--3-------3--5-6-5--6--3----3----------------|
G|-------------------------------------4------------------4------------------|
D|---------------------------------------------------------------------------|
A|---------------------------------------------------------------------------|
E|---------------------------------------------------------------------------|

Riff 1
e|---6/7--4------------------------------------------------------------------|
B|-----------6---4---4---6-7/8-8-8-8-----------------------------------------|
G|-----------------5---------------------------------------------------------|
D|---------------------------------------------------------------------------|
A|---------------------------------------------------------------------------|
E|---------------------------------------------------------------------------|

Section 2
e|---7----5-7/8--7--5--7--5-------5/7---5h7p5----3--5--5/8---5--3------------|
B|-----------------------------7-----------------------------------6--5------|
G|---------------------------------------------------------------------------|
D|---------------------------------------------------------------------------|
A|---------------------------------------------------------------------------|
E|---------------------------------------------------------------------------|


http://www.webofmimicry.com/label.php?band=sc3
http://www.myspace.com/secretchiefs3
Tap to rate this tab
 
# A B C D E F G H I J K L M N O P Q R S T U V W X Y Z