Secret Chiefs 3 - Renunciation tab

                         renunciation
                    by the secret chiefs 3

intro:

e:--------1--1----|
b:------1-----1---|
g:----3---------3-| .
d:--3-------------| .  repeat
a:----------------|
E:----------------|

riff 1:

e:-----------------------------------------------------|
b:-----------------------------------------------------|
g:-----------------3-----------------------------------|
d:----1--3--4---3----4--3---4-3-1----1--3--4--1-----3--|
a:--3------------------------------3-------------3-----|
E:-----------------------------------------------------|
repeat with variations

e:--9--7----------------*--*--*--*--|
b:-------8--7--5-----5--8--8--8--8--|
g:----------------6-----------------|
d:----------------------------------|
a:----------------------------------|
E:----------------------------------| *second time f# instead of g



violin part after the break:

e:------------------------------------------------------|
b;--2---0-2---3-2-0-----------2--0--------0--2--0-------|
g:------------------0------------------2-----------2----|
d:---------------------4------------------------------4-|
a:------------------------------------------------------|
E;------------------------------------------------------|


outro:  u can figure that out, similar to riff 1


if anybody can help me with the chords, key, or time signature that would be awsome
get ahold of me at gymnopilus@gmail.com
Tap to rate this tab
 
# A B C D E F G H I J K L M N O P Q R S T U V W X Y Z