Secret Chiefs 3 - Sophias Theme tab

                                      Sophia's Theme
                                      by The Secret Chiefs 3

just an interpotation
i think its in G,
4/4


the bars use the same pattern

bar 1:

   |     |     |     |
e-------------------------|
B-----1-----1-------------|
G--------4-----2-----0----|
D--2--------------------4-|
A-------------------------|
E-------------------------|



2nd bar: move 1 step down and hold 4th note (b) to end of bar

3rd bar: move pattern another step down to C. beat 4: G,A

4th and 5th bars:

    |     |     |     |     |     |     |    |
e:-----------------------------------------------|
B:-----------------------------------------------|
G:--4--2-----------------2--4--2-----------------|
D:--------5--4--0--4--5-----------5--4--0--------|
A:-----------------------------------------------|
E:-----------------------------------------------|


something like that, its easy to experiment with
just pick notes from the g scale
i would like to know what anyone thinks  about this or other secret chief 3 songs,
comments suggestions,
email : gymnopilus@gmail.com
Tap to rate this tab
 
# A B C D E F G H I J K L M N O P Q R S T U V W X Y Z