Secret Chiefs 3 - The 4 Great Ishraqi Sun tab

INTRO:

Play twice
e[---------------------------------------------------------------------|
b[---------5/6--6-6--666--6^7^6-----6----------------------------------|
g[---6--8------------------------8----------5^6-8-8--888---6^8^6--5--6-|
d[---------------------------------------------------------------------|
a[---------------------------------------------------------------------|
E[---------------------------------------------------------------------|

e[---------------------------------------------------------------------|
b[---------------------------------------------------------------------|
g[---5^6^5----5^6^5----5^6^5---------5-6-8-8-8--8--5-6--5^6^5----------|
d[---------8--------8--------88---8---------------------------8--------|
a[---------------------------------------------------------------------|
E[---------------------------------------------------------------------|

Will add more later
Tap to rate this tab
 
# A B C D E F G H I J K L M N O P Q R S T U V W X Y Z