Song name
# A B C D E F G H I J K L M N O P Q R S T U V W X Y Z

Secret Garden - The Promise tab

-------------------------------------------------------------------------------
			     The Promise  Secret Garden
-------------------------------------------------------------------------------
Tabbed by: Raphael Solomon
Email: solomon.raphael@gmail.com 

Tuning:

e|-------5---4---------------------------------------------------------------|
B|---5-----------5---5---7---5-----------3---2-----------0---2---3---0-------|
G|-------------------------------2---2---------------2-----------------------|
D|-----------------------------------------------4---------------------------|
A|---------------------------------------------------------------------------|
E|---------------------------------------------------------------------------|

e|-------5---4---------------------------------------------------------------|
B|---5-----------5---7---5-----------3---2---0---2---------------0---2---3---|
G|---------------------------2---2---------------------------2---------------|
D|---------------------------------------------------4---4-------------------|
A|---------------------------------------------------------------------------|
E|---------------------------------------------------------------------------|

e|-----------9---7-------------10---9-----------7---5------------------------|
B|---0---5------------5----5------------5---5-----------2---0---2---3---2----|
G|---------------------------------------------------------------------------|
D|---------------------------------------------------------------------------|
A|---------------------------------------------------------------------------|
E|---------------------------------------------------------------------------|

e|---5---5---7---5---4---5---5-----------5---7---5---4---5---5---------------|
B|-------------------------------3---3---------------------------2---3---2---|
G|---------------------------------------------------------------------------|
D|---------------------------------------------------------------------------|
A|---------------------------------------------------------------------------|
E|---------------------------------------------------------------------------|

e|---------------------------------------------------------------------------|
B|---0---2---2---------------0---2---3---0---0-----------0---2---------------|
G|-----------------------2-----------------------1---2-----------2---2-------|
D|---------------4---4-------------------------------------------------------|
A|---------------------------------------------------------------------------|
E|---------------------------------------------------------------------------|

e|---4---5---7---9---5-------------------------------------------------------|
B|---------------------------------------------------------------------------|
G|---------------------------------------------------------------------------|
D|---------------------------------------------------------------------------|
A|---------------------------------------------------------------------------|
E|---------------------------------------------------------------------------|

Tap to rate this tab
 
# A B C D E F G H I J K L M N O P Q R S T U V W X Y Z