Song name
# A B C D E F G H I J K L M N O P Q R S T U V W X Y Z

Secret Hate - The Ballad Of Johnny Butt tab

Secret Hate
The Ballad of Johnny Butt

Chord Rips  A,F,E

e|-5----5-----5-----5-----13-13-13-13-13-13-12---------12-----12------12----|
B|-5----5-----5-----5-----13-13-13-13-13-13-12-12--12-----12------12------12|
G|-6----6-----6-----6-----14-14-14-14-14-14-13-13---------------------------|
D|--------------------------------------------------------------------------|
A|--------------------------------------------------------------------------|
E|--------------------------------------------------------------------------|

Bass Line Tab

e|--------------------------------------------------------------------------|
B|--------------------------------------------------------------------------|
G|--------------------------------------------------------------------------|
D|------------5--7---7---7-5------------------------------------------------|
A|-------7---7---------------7---8-----8-------8p7p5------------------------|
E|-5----5--------------------------8-8---8----8-------8--7-8-8-7-7----------|
Tap to rate this tab
 
# A B C D E F G H I J K L M N O P Q R S T U V W X Y Z