Song name
# A B C D E F G H I J K L M N O P Q R S T U V W X Y Z

Secret Lives Of The Freemasons - Dance Dance Revolution tab

I noticed that this song was in the request, and the request-er said it was in
powertab, so i just converted it.

         ^^

******CREDIT FOR THIS TAB GOES TO GRACEGALE*****




  Q=185
  Gtr I
  Q  E E E E E E   E E E E E E E E   Q  E E E E E E   E E E E E E E E
|----------------|-----------------|----------------|-----------------|
|----------------|-----------------|----------------|-----------------|
|-7S=9-9---9---9-|---9---9---9-9s7-|-7S=9-9---9---9-|---9---9---9-9-9-|
|-7S=9-9---9---9-|---9---9---9-9s7-|-7S=9-9---9---9-|---9---9---9-9-9-|
|-5S=7-7---7---7-|---7---7---7-7s5-|-5S=7-7---7---7-|---7---7---7-7-7-|
|----------------|-----------------|----------------|-----------------|
|
| Gtr II
| Q  E E E E E E   E E E E E E E E   Q  E E E E E E   E E E E E E E E
|----------------|-----------------|----------------|-----------------|
|-3S=5-5---5---5-|---5---5---5-5p3-|-3S=5-5---5---5-|---5---5---5-5-5-|
|----------------|-----------------|----------------|-----------------|
|----------------|-----------------|----------------|-----------------|
|----------------|-----------------|----------------|-----------------|
|----------------|-----------------|----------------|-----------------|


  Q   E E E E E E E    E E E E E E E Q     E E E E E E E E   E E E E E E
|-------------------|--------------------|-----------------|--------------|
|-------------------|--------------------|-----------------|--------------|
|-5---5-5---5---5---|--5---5---5s4s5-5---|-5-5---5---5---5-|---5---5-5-5--|
|-5---5-5---5---5---|--5---5---5s4s5-5---|-5-5---5---5---5-|---5---5-5-5--|
|-3---3-3---3---3---|--3---3---3s2s3-3---|-3-3---3---3---3-|---3---3-3-3--|
|-------------------|--------------------|-----------------|--------------|
|
| Q E E   E E E E      E   E E E E E E Q   E E E E E E E E   E E E E E E
|-------------------|--------------------|-----------------|--------------|
|-------------------|--------------------|-----------------|--------------|
|-5-5-5-----5---5---|--5-----5---5-4-5-5-|-5-5---5---5---5-|---5---5-5-5--|
|-------------------|--------------------|-----------------|--------------|
|-------------------|--------------------|-----------------|--------------|
|-------------------|--------------------|-----------------|--------------|


  Q  E E E E E E   E E E E E E E E   Q  E E E E E E   E E E E E E E E
|----------------|-----------------|----------------|-----------------|
|----------------|-----------------|----------------|-----------------|
|-7S=9-9---9---9-|---9---9---9-9s7-|-7S=9-9---9---9-|---9---9---9-9-9-|
|-7S=9-9---9---9-|---9---9---9-9s7-|-7S=9-9---9---9-|---9---9---9-9-9-|
|-5S=7-7---7---7-|---7---7---7-7s5-|-5S=7-7---7---7-|---7---7---7-7-7-|
|----------------|-----------------|----------------|-----------------|
|
| Q  E E E E E E   E E E E E E E E   Q  E E E E E E   E E E E E E E E
|----------------|-----------------|----------------|-----------------|
|-3S=5-5---5---5-|---5---5---5-5p3-|-3S=5-5---5---5-|---5---5---5-5-5-|
|----------------|-----------------|----------------|-----------------|
|----------------|-----------------|----------------|-----------------|
|----------------|-----------------|----------------|-----------------|
|----------------|-----------------|----------------|-----------------|


  Q  E Q  E E E   +E  E E E +E  E E E   Q  E Q  E E E   +E  E E E +E  E E E
|---------------|---------------------|---------------|---------------------|
|---------------|---------------------|---------------|---------------------|
|-5--5-5--5-5-5-|-(5)-5-5-5-(5)-5-5-5-|-5--5-5--5-5-5-|-(5)-5-5-5-(5)-5-5-5-|
|-5--5-5--5-5-5-|-(5)-5-5-5-(5)-5-5-5-|-5--5-5--5-5-5-|-(5)-5-5-5-(5)-5-5-5-|
|-3--3-3--3-3-3-|-(3)-3-3-3-(3)-3-3-3-|-3--3-3--3-3-3-|-(3)-3-3-3-(3)-3-3-3-|
|---------------|---------------------|---------------|---------------------|


    Q   Q   Q   Q     Q   Q   Q   Q     Q   Q   Q   Q     Q   Q   Q   Q
||------------------|-----------------|-----------------|------------------|
||o-----------------|-----------------|-----------------|------------------|
||--5---4-------5---|-4-------5---4---|-5---4-------5---|-4-------5---4----|
||----------5-------|-----5-----------|---------5-------|-----5------------|
||o-----------------|-----------------|-----------------|------------------|
||------------------|-----------------|-----------------|------------------|
|
|   Gtr II
|   E E E E E E E E   E E E E E E E E   E E E E E E E E   E E E E E E E E
||------------------|-----------------|-----------------|------------------|
||o-----------------|-----------------|-----------------|------------------|
||------------------|-----------------|-----------------|------------------|
||--3-3-3-3-3-3-3-3-|-3-3-3-3-3-3-3-3-|-5-5-5-5-5-5-5-5-|-5-5-5-5-5-5-5-5--|
||o-3-3-3-3-3-3-3-3-|-3-3-3-3-3-3-3-3-|-5-5-5-5-5-5-5-5-|-5-5-5-5-5-5-5-5--|
||--3-3-3-3-3-3-3-3-|-3-3-3-3-3-3-3-3-|-5-5-5-5-5-5-5-5-|-5-5-5-5-5-5-5-5--|


  Q   Q   Q   Q     Q   Q   Q   Q     Q   Q   Q   Q     Q   Q   Q   Q
|-----------------|-----------------|-----------------|------------------||
|-----------------|-----------------|-----------------|-----------------o||
|-5---4-------5---|-4-------5---4---|-5---4-------5---|-4-------5---4----||
|---------5-------|-----5-----------|---------5-------|-----5------------||
|-----------------|-----------------|-----------------|-----------------o||
|-----------------|-----------------|-----------------|------------------||
|
| E E E E E E E E   E E E E E E E E   E E E E E E E E   E E E E E E E E
|-----------------|-----------------|-----------------|------------------||
|-----------------|-----------------|-----------------|-----------------o||
|-----------------|-----------------|-----------------|------------------||
|-7-7-7-7-7-7-7-7-|-7-7-7-7-7-7-7-7-|-7-7-7-7-7-7-7-7-|-7-7-7-7-7-7-7-7--||
|-7-7-7-7-7-7-7-7-|-7-7-7-7-7-7-7-7-|-7-7-7-7-7-7-7-7-|-7-7-7-7-7-7-7-7-o||
|-7-7-7-7-7-7-7-7-|-7-7-7-7-7-7-7-7-|-7-7-7-7-7-7-7-7-|-7-7-7-7-7-7-7-7--||


    Q  E E H      Q  E E H      Q  E E H      Q  E E E E E E
||--------------|-------------|-------------|-----------------|
||o-------------|-------------|-------------|-----------------|
||--7S=9-9------|-7S=9-9------|-7S=9-9------|-7S=9-9---9-9-9--|
||--7S=9-9------|-7S=9-9------|-7S=9-9------|-7S=9-9---9-9-9--|
||o-5S=7-7------|-5S=7-7------|-5S=7-7------|-5S=7-7---7-7-7--|
||--------------|-------------|-------------|-----------------|


  Q  E E H      Q  E E H      Q  E E H      Q  E E E E E E
|-------------|-------------|-------------|-----------------||
|-------------|-------------|-------------|----------------o||
|-5--5-5------|-5--5-5------|-5--5-5------|-5--5-5---5-5-5--||
|-5--5-5------|-5--5-5------|-5--5-5------|-5--5-5---5-5-5--||
|-3--3-3------|-3--3-3------|-3--3-3------|-3--3-3---3-3-3-o||
|-------------|-------------|-------------|-----------------||


    Q  E E H      Q  E E H      Q  E E H      Q  E E Q  E E
||--------------|-------------|-------------|----------------|
||o-------------|-------------|-------------|----------------|
||--------------|-------------|-------------|----------------|
||--2--2-2------|-2--2-2------|-2--2-2------|-2--2-2------2--|
||o-2--2-2------|-2--2-2------|-2--2-2------|-2--2-2------2--|
||--2--2-2------|-2--2-2------|-2--2-2------|-2--2-2------2--|


  Q  E E H      Q  E E H      Q  E E H      Q  E E Q  E E
|-------------|-------------|-------------|----------------||
|-------------|-------------|-------------|---------------o||
|-------------|-------------|-------------|----------------||
|-5--5-5------|-5--5-5------|-5--5-5------|-5--5-5------5--||
|-5--5-5------|-5--5-5------|-5--5-5------|-5--5-5------5-o||
|-5--5-5------|-5--5-5------|-5--5-5------|-5--5-5------5--||


    Q   Q   Q   Q     Q   Q   Q   Q     Q   Q   Q   Q     Q   Q   Q   Q
||------------------|-----------------|-----------------|------------------|
||o-----------------|-----------------|-----------------|------------------|
||--5---4-------5---|-4-------5---4---|-5---4-------5---|-4-------5---4----|
||----------5-------|-----5-----------|---------5-------|-----5------------|
||o-----------------|-----------------|-----------------|------------------|
||------------------|-----------------|-----------------|------------------|
|
|   E E E E E E E E   E E E E E E E E   E E E E E E E E   E E E E E E E E
||------------------|-----------------|-----------------|------------------|
||o-----------------|-----------------|-----------------|------------------|
||------------------|-----------------|-----------------|------------------|
||--3-3-3-3-3-3-3-3-|-3-3-3-3-3-3-3-3-|-5-5-5-5-5-5-5-5-|-5-5-5-5-5-5-5-5--|
||o-3-3-3-3-3-3-3-3-|-3-3-3-3-3-3-3-3-|-5-5-5-5-5-5-5-5-|-5-5-5-5-5-5-5-5--|
||--3-3-3-3-3-3-3-3-|-3-3-3-3-3-3-3-3-|-5-5-5-5-5-5-5-5-|-5-5-5-5-5-5-5-5--|


  Q   Q   Q   Q     Q   Q   Q   Q     Q   Q   Q   Q     Q   Q   Q   Q
|-----------------|-----------------|-----------------|------------------||
|-----------------|-----------------|-----------------|-----------------o||
|-5---4-------5---|-4-------5---4---|-5---4-------5---|-4-------5---4----||
|---------5-------|-----5-----------|---------5-------|-----5------------||
|-----------------|-----------------|-----------------|-----------------o||
|-----------------|-----------------|-----------------|------------------||
|
| E E E E E E E E   E E E E E E E E   E E E E E E E E   E E E E E E E E
|-----------------|-----------------|-----------------|------------------||
|-----------------|-----------------|-----------------|-----------------o||
|-----------------|-----------------|-----------------|------------------||
|-7-7-7-7-7-7-7-7-|-7-7-7-7-7-7-7-7-|-7-7-7-7-7-7-7-7-|-7-7-7-7-7-7-7-7--||
|-7-7-7-7-7-7-7-7-|-7-7-7-7-7-7-7-7-|-7-7-7-7-7-7-7-7-|-7-7-7-7-7-7-7-7-o||
|-7-7-7-7-7-7-7-7-|-7-7-7-7-7-7-7-7-|-7-7-7-7-7-7-7-7-|-7-7-7-7-7-7-7-7--||


    W         +W           W          +W
||----------|------------|----------|--------|
||o---------|------------|----------|--------|
||----------|------------|----------|--------|
||--3-------|-(3)--------|-5--------|-(5)----|
||o-3-------|-(3)--------|-5--------|-(5)----|
||--3-------|-(3)--------|-5--------|-(5)----|


  W             +W            +W             +W
|--------|--------------|--------------|-------------||
|--------|--------------|--------------|------------o||
|--------|--------------|--------------|-------------||
|-7------|------(7)-----|-----(7)------|-----(7)-----||
|-7------|------(7)-----|-----(7)------|-----(7)----o||
|-7------|------(7)-----|-----(7)------|-----(7)-----||



***************************************************************************************
* Generated using Power Tab Editor by Brad Larsen - http://powertab.guitarnetwork.org *
***************************************************************************************
Tap to rate this tab
# A B C D E F G H I J K L M N O P Q R S T U V W X Y Z