Song name
# A B C D E F G H I J K L M N O P Q R S T U V W X Y Z

Secret Lives Of The Freemasons - It Only Took A Whisper tab

Hey!!! my name is Jacob and I didn't see any Secret Lives tabs so here is my tab for It 
Took A Whisper.  I don't think there are any mistakes:

Use slight delay on the intro

Intro:

E-------------------------------------|
B-------------------------------------|
G--------------9-------9b~------------|
D-------7----7----7-7-----------------|
A----9----9---------------------------|
E-------------------------------------|


E-------------------------------------|
B-------------------------------------|
G--------------9-------9b~------------|
D-------7----7----7-7-----------------|
A----9----9---------------------------|
E-------------------------------------|

E-------------------------------------|
B-------------------------------------|
G--------------9--7--6b~-6------------|
D-------7----7-------------7--7b~-----|
A----9----9---------------------------|
E-------------------------------------|


On the second time play it like this:


E-------------------------------------|
B-------------------------------------|
G--------------9-------9b~------------|
D-------7----7----7-7-----------------|
A----9----9---------------------------|
E-------------------------------------|

E-------------------------------------|
B--------------9----------------------|
G--------------9-------9b~------------|
D-------7----7----7-7-----------------|
A----9----9---------------------------|
E-------------------------------------|


E-------------------------------------|
B-------------------------------------|
G--------------9--7--6b~-6------------|
D-------7----7-------------7--7b~-----|
A----9----9---------------------------|
E-------------------------------------|


Clean:

E-------------------------------------|
B-------------------------------------|
G----9--9-9--9-9-9-9------------------|
D----7--7-7--7-7-7-7------------------|
A----9--9-9--9-9-9-9------------------|
E-------------------------------------|


Verse:

E-------------------------------------|
B-------------------------------------|
G----9--9-9--9-9-9-9------------------|
D----7--7-7--7-7-7-7--2--2-2--2-2-2-2-|
A----9--9-9--9-9-9-9--0--0-0--0-0-0-0-|
E-------------------------------------|


E-------------------------------------|
B-------------------------------------|
G----9--9-9--9-9-9-9--4--4-4--5-5-5-5-|
D----9--9-9--9-9-9-9--4--4-4--5-5-5-5-|
A----7--7-7--7-7-7-7--2--2-2--3-3-3-3-|
E-------------------------------------|

For the chorus just play the intro without the clean part.

www.myspace.com/secretlivesofthefreemasons

That is all I have of it but if you have any corrections or other parts of the song just 
me know at: xxx_my_heart_bleeds_no_more_xxx@yahoo.com.
Tap to rate this tab
# A B C D E F G H I J K L M N O P Q R S T U V W X Y Z