Song name
# A B C D E F G H I J K L M N O P Q R S T U V W X Y Z

Secret Whisper - The End Of Me tab

Title: The End of Me
Artist: The Secret Whisper
Album: Le Jeune Amour(2011)

Tabbed by: angeluskai@hotmail.com

Tuning: Standard - EADGBe

Intro/Verse:
e:--------------------------------------------------------------------------|
B:--------------------------------------------------------------------------|
G:----5---5---5---5---7---7---7---7----9----9----9----9----9----9----9----9-|
D:--7---7---7---7---9---9---9---9---10---10---10---10---10---10---10---10---|
A:--------------------------------------------------------------------------|
E:--------------------------------------------------------------------------|

Chorus:

Guitar 1
e:------------------|
B:------------------|
G:--------9--10--9--|
D:--2--5--x--x---x--|(x8)
A:--2--5--7---8--7--|
E:--0--3------------|

Guitar 2
e:-----|
B:-----|
G:--9--|
D:--x--|(x64)
A:--7--|
E:-----|

Fill
e:--------------------------|
B:--10-12-12-10-12-12-10-12-|
G:--------------------------|
D:--------------------------|
A:--------------------------|
E:--------------------------|


Verse/Chorus:
e:--------------------------------------------------------------------------|
B:--------------------------------------------------------------------------|
G:----5---5---5---5---7---7---7---7----9----9----9----9----9----9----9----9-|
D:--7---7---7---7---9---9---9---9---10---10---10---10---10---10---10---10---|
A:--------------------------------------------------------------------------|
E:--------------------------------------------------------------------------|


Post-Chorus:
e:-----|
B:-----|Quick pick until bridge
G:--2--|


Bridge:

Guitar 1
e:-----------|
B:-----------|
G:--5--------|
D:--5--5--3--|(x4)
A:--3--5--3--|
E:-----3--1--|

Guitar 2 (3:09)
e:---------------------|
B:---------------------|
G:--9--12--14-12-10-9--|(x4)
D:--x---x---x--x--x-x--|
A:--7--10--12-10--8-7--|
E:---------------------|
Tap to rate this tab
# A B C D E F G H I J K L M N O P Q R S T U V W X Y Z