Song name
# A B C D E F G H I J K L M N O P Q R S T U V W X Y Z

Secrets In Stereo - Again tab

Tuning:

Capo on the 1st fret

EADGBe (standard)

The Chords to the Song are Easy: 
Em,  C,  G,  D
|0| |0| |3| |2|
|0| |1| |3| |3|  
|0| |0| |0| |2|  Play them in this order. They're the only chords.
|2| |2| |0| |0|  Hear the song to find out the right way to play them!
|2| |3| |2| |X|
|0| |0| |3| |X|

____________________

X = pause


Intro + (If I had my way.....)             (Got it down to your heart ...)

|-----------------------------3-----|  |---------------------------------|
|--3--------3--------3-----------3~-|  |--3--------3--------3------------|
|-----0-0------0-0------0-0---------|x5|-----0-0------0-0------0-0-------|x1
|---------------------------0-------|  |---------------------------0~----|
|---------3---3---------------------|  |---------3---3-------------------|
|0---0-------------3----------------|  |0---0-------------3--------------|


Pre chorous (your eyes surprise me, everytime...)
|X-------------------|X-------------------|
|X---0-1---3---------|X---0-1--------3~---|
|X-0-----0----0------|X-0-----0----0------|x2
|X--------------0~---|X---------0---------|
|X-------------------|X-------------------|
|X-------------------|X-------------------|


(And it's the very first night allover...)
|---------------|---------------|--------------|
|---------------|---------------|--------------|
|---------------|0~-------------|--------------|
|2~-------------|-------4~------|2~------------|
|-------3~------|---------------|-------3~-----|
|---------------|---------------|--------------|


... (Chords: Em, C, G)


(You wreck my world, you wreck my world)
|---------------|---------------|
|---------------|---------------|
|---------------|0~-------------|x2 (+ Chords by the
|-2~------------|-------4~------|    other Guitar)
|--------3~-----|---------------|
|---------------|---------------|


(you walked in the room and....)
            G                     G        D
|-----------3(~)-----|-----------|3(~)----|2(~)---|
|----0-1~---3(~)-----|----0-1~---|3(~)----|3(~)---|
|--0--------0(~)-----|--0--------|0(~)----|2(~)---|
|2----------0(~)-----|2----------|0(~)----|0(~)---|
|-----------2(~)-----|-----------|2(~)----|X------|
|-----------3(~)-----|-----------|3(~)----|X------|


Pre chorous (your eyes surprise me, everytime...)
|X-------------------|X-------------------|
|X---0-1---3---------|X---0-1--------3~---|
|X-0-----0----0------|X-0-----0----0------| x2
|X--------------0~---|X---------0---------|
|X-------------------|X-------------------|
|X-------------------|X-------------------|


(it's the very first night all over...)
|---------------|---------------|--------------|
|---------------|---------------|--------------|
|---------------|0~-------------|--------------| (+ Chords by the 
|2~-------------|-------4~------|2~------------|  other Guitar)
|-------3~------|---------------|-------3~-----|
|---------------|---------------|--------------|


Again...and again. And again i'm fallin for you...)
|0-0-0-0-0-0-0-0-0-0-0-0-0-0-0-0|-------------------------------|
|5-5-5-5-5-5-5-5-5-5-5-5-5-3-3-3|5-5-5-5-5-5-5-5-5-5-5-5-5-5-5-5|
|-------------------------------|2-2-2-2-2-2-2-2-2-2-2-2-2-2-2-2|x2 
|-------------------------------|-------------------------------|
|-------------------------------|-------------------------------|
|-------------------------------|-------------------------------|
(Overdrv. Electric Guitar)


Pre chorous (your eyes surprise me, everytime...)

|----...----|X------------------|X------------------|X------------------|
|----...----|X---0-1--------3~--|X---0-1---3--------|X---0-1--------3~--|
|----...----|X-0-----0----0-----|X-0-----0----0-----|X-0-----0----0-----|
|----...----|X---------0--------|X--------------0~--|X---------0--------|
|----...----|X------------------|X------------------|X------------------|
|----...----|X------------------|X------------------|X------------------|


(it's the very first night all over...)
|---------------|---------------|--------------|
|---------------|---------------|--------------|
|---------------|0~-------------|--------------|
|2~-------------|-------4~------|2~------------|
|-------3~------|---------------|-------3~-----|
|---------------|---------------|--------------|


(Again...and again. And again i'm fallin for you...)
|0-0-0-0-0-0-0-0-0-0-0-0-0-0-0-0|0-0-0-0-0-0-0-0----------------|
|5-5-5-5-5-5-5-5-5-5-5-5-5-5-5-5|5-5-5-5-5-5-5-5-5-5-5-5-5-5-5-5|
|-------------------------------|----------------2-2-2-2-2-2-2-2| x2
|-------------------------------|-------------------------------|
|-------------------------------|-------------------------------|
|-------------------------------|-------------------------------|

_________________________________________________
|                                               | x2
|                                               |
|0-0-0-0-0-0-0-0-0-0-0-0-0-0-0-0|---------------|---------------|
|5-5-5-5-5-5-5-5-5-5-5-5-5-3-3-3|5-5-5-5-5-5-5-5|5-5-5-5-5-5-5-5|
|-------------------------------|2-2-2-2-2-2-2-2|2-2-2-2-2-2-2-2|
|-------------------------------|---------------|---------------|
|-------------------------------|---------------|---------------|
|-------------------------------|---------------|---------------|


Ending
|-------------|--------------|-------------|-------------|-------------|
|-------------|--------------|-------------|-------------|-------------|
|-------------|----0~--------|0~-----------|-------------|-------------|
|2~-----------|--------------|-------------|4~-----------|2~-----------|
|-------------|3~------------|-------------|-------------|-------------|
|-------------|--------------|-------------|-------------|-------------|



This was my first tab!
(c)Robin aka Noerfi

Website of Secrets in Stereo:
http://www.secretsinstereo.com/
Tap to rate this tab
 
# A B C D E F G H I J K L M N O P Q R S T U V W X Y Z