Song name
# A B C D E F G H I J K L M N O P Q R S T U V W X Y Z

Secrets - Sleep Well Darling tab

-------------------------------------------------------------------------------
                             sleep well, darling-secrets
-------------------------------------------------------------------------------
Tabbed by: bassist327
E-mail: bassist327@aol.com

Tuning:standerd

So this Is my first tab ever I think its correct but if you hear anything different feel 
free to tell me I love feed back!
 Its a pretty simple song to play its in standard no capo and its just been a blast 
tabbing this
amazing song from an amazing album from an amazing
band!I hope all of you have fun playing it! and the strumming is pretty simple just 
listen to the song
to find out


  Intro 2x (0:00-0:14)
E |--x-------------------2------2---2----|
B |--3-------------------3------2---3----|
G |--0-------------------2------2---2----|
D |--0-------------------0------0---0----|
A |--2-------------------0------0---0----|
E |--3------------------x------x---x----|


     Verse 4x (0:14-0:43)
E |--x-------------------2------2---2--------|
B |--3-------------------3------2---3--------|
G |--0-------------------2------2---2--------|
D |--0-------------------0------0---0--------|
A |--2-------------------0------0---0--------|
E |--3------------------x------x---x--------|

      Play intro 2x (0:43-0:57)


  Chorus 2x (0:57-1:26)
E |--x--------------x----------------x---------x---------x------|
B |--3--------------3----------------7---------5---------3------|
G |--0--------------0----------------0---------0---------0------|
D |--0--------------0----------------0---------0---------0------|
A |--2--------------x----------------x---------x---------x------|
E |--3-------------5----------------5---------5---------3------|


Intro 2x (1:27-1:42)
Verse 4x (1:42-2:11)
Intro 2x (2:11-2:23)
Chorus 2x (2:23-2:52)

   Electric guitar kicks in


     Chorus (electric guitar) 2x (2:56-3:12)
E |----------------------------------|
B |----------------------------------|
G |7777777766667777------------------|
D |7777777777777777-5555555555555555-|
A |5555555555555555-5555555555555555-|
E |-----------------3333333333333333-|



   End chorus (3:12-3:15)
E |--------------------------|
B |--------------------------|
G |7777777766667777----------|
D |7777777777777777-55555555-|
A |5555555555555555-55555555-|
E |-----------------33333333-|




Ending 2x (3:17-3:45)
E |-------------------------------------------|
B |-------------------------------------------|
G |7777777777777777---------------------------|
D |7777777777777777-5555555555555555-99999999-|
A |5555555555555555-5555555555555555-99999999-|
E |-----------------3333333333333333-77777777-|

E |----------------------------------|
B |----------------------------------|
G |----------------------------------|
D |1212121212121212-5555555555555555-|
A |1212121212121212-5555555555555555-|
E |1010101010101010-3333333333333333-|

END
 hope you enjoyed!


************************************

| /   slide up
| \   slide down
| h   hammer-on
| p   pull-off
| ~   vibrato
| +   harmonic
| x   Mute note
| b   Bend
| pb  Pre-bend
| br  Bend release
| pbr Pre-bend release
| brb Bend release bend

************************************
Tap to rate this tab
 
# A B C D E F G H I J K L M N O P Q R S T U V W X Y Z