Song name
# A B C D E F G H I J K L M N O P Q R S T U V W X Y Z

Secrets - Sleep Well Darling tab

Song Title: Sleep Well, Darling
Artist: Secrets
Tuning: Drop D

Tabbed by: Chris Bartley
Email: cbartle2@gmail.com



I studied live performances to confirm the accuracy of this tab, it sounds spot on.
Let me know if you notice any problems.

Listen to the song for the rhythm and strumming pattern, its pretty straight forward.


Intro: Guitar 1

E|----0--------0----0---------------------------------------------------------------|
B|----7-------10----7---------------------------------------------------------------|
G|----7--------7----6---------REPEAT AS NECESSARY-----------------------------------|
D|----0--------0----0---------------------------------------------------------------|
A|----X--------X----X---------------------------------------------------------------|
D|----5--------9----7---------------------------------------------------------------|



Verse: Guitar 1

        Who said love should be this hard, who said hearts should break apart
E|--0-------------------------------0--------------0-------------------0------------|
B|--7------------------------------10--------------7-------------------7------------|
G|--7-------------------------------7--------------6-------------------7------------|
D|--0-------------------------------0--------------0-------------------0------------|
A|--X-------------------------------X--------------X-------------------X------------|
D|--5-------------------------------9--------------7-------------------5------------|

        I know, maybe I should mend this. Pull out the glue, maybe I can fix this
E|--0-----------------------------------0-------------------0-----------------------|
B|--7----------------------------------10-------------------7-----------------------|
G|--7-----------------------------------7-------------------6------------REPEAT-----|
D|--0-----------------------------------0-------------------0-----------------------|
A|--X-----------------------------------X-------------------X-----------------------|
D|--5-----------------------------------9-------------------7-----------------------|



Pre-Chorus: Guitar 1

        Youre running away from things that matter, more then you know
E|--0---------------------------0-------------------0-------------------------------|
B|--7---------------------------10------------------7-------------------------------|
G|--7---------------------------7-------------------6------------REPEAT-------------|
D|--0---------------------------0-------------------0-------------------------------|
A|--X---------------------------X-------------------X-------------------------------|
D|--5---------------------------9-------------------7-------------------------------|

        Youre chasing a love that could never love you, as much as I do
E|--0-----------------------------------0------------------0------------------------|
B|--7-----------------------------------10-----------------7------------------------|
G|--7-----------------------------------7------------------6------------REPEAT------|
D|--0-----------------------------------0------------------0------------------------|
A|--X-----------------------------------X------------------X------------------------|
D|--5-----------------------------------9------------------7------------------------|



Chorus: Guitar 1

        My eyes have seen these streets, Ive walked this road. Every time I look
E|--0--------------------------0-------------------------------0-------------------|
B|--7--------------------------7-------------------------------10------------------|
G|--7--------------------------7-------------------------------7-------------------|
D|--0--------------------------0-------------------------------0-------------------|
A|--X--------------------------X-------------------------------X-------------------|
D|--0--------------------------5-------------------------------9-------------------|

     back all I see is your face, my darling
E|-------0-----------------0-------------------------------------------------------|
B|-------7-----------------7-------------------------------------------------------|
G|-------6-----------------7--------------------REPEAT-----------------------------|
D|-------0-----------------0-------------------------------------------------------|
A|-------X-----------------X-------------------------------------------------------|
D|-------7-----------------5-------------------------------------------------------|


The same chords repeat themselves for the remaining verses and choruses.
Tap to rate this tab
# A B C D E F G H I J K L M N O P Q R S T U V W X Y Z