Song name
# A B C D E F G H I J K L M N O P Q R S T U V W X Y Z

Secrets - Maybe Next May tab

Maybe Next May Tab

Intro (Chorus 2)
Guitar 1
E|-------------------------|-------------------------|
B|-------------------------|-------------------------|
G|-------------------------|-------------------------|
D|-4-----0-----7-----2-----|-4-----0-----7-----2-----|
A|-4(x8)-0(x8)-7(x8)-2(x8)-|-4(x8)-0(x8)-7(x8)-2(x5)-|
D|-4-----0-----7-----2-----|-4-----0-----7-----2-----|
   .     .     .     .       .     .     .     .

Chorus
Guitar 1
E|------------------------------------------------------------|
B|------------------------------------------------------------|
G|-9-----11----6-----7----------------------------------------|x2
D|-x(x5)-x(x3)-x(x5)-x(x3)-9h11-11-9-11-9-7-9h11-11-9-11-9-11-|
A|-7-----9-----4-----5----------------------------------------|
D|------------------------------------------------------------|
Guitar 2
E|-------------------------|
B|-------------------------|
G|-------------------------|
D|-4-----0-----7-----2-----|
A|-4(x8)-0(x8)-7(x8)-2(x8)-|
D|-4-----0-----7-----2-----|

Verse 1
Both Guitars
E|-----------------|-------------|-----------------|--------------|
B|---------5-------|-------------|-----------------|--------------|
G|---------6-------|-------9---9-|---------9-------|--------------|x2
D|-000-000-x-0-000-|-000-007-007-|-000-000-7-0-000-|-000-00-------|
A|-000-000-7-0-000-|-000-00--00--|-000-000---0-000-|-000-00-2-4-2-|
D|-000-000---0-000-|-000-00--00--|-000-000---0-000-|-000-00-------|
   ... ...   . ...   ... ..  ..    ... ...   . ...   ... ..
E|-----------------|---------------|-----------------|---------------|
B|-----------------|---------------|-----------------|---------------|
G|-----------------|---------------|-----------------|---------------|x2
D|-000-000-0-0-000-|-000-000-0-0-0-|-000-000-0-0-000-|-000-000-2-----|
A|-000-000-0-0-000-|-000-000-0-0-0-|-000-000-0-0-000-|-000-000-2(x2)-|
D|-000-000-0-0-000-|-000-000-0-0-0-|-000-000-0-0-000-|-000-000-2-----|
   ... ... . . ...   ... ... . . .   ... ... . . ...   ... ... .

[Chorus]

Verse 2
Guitar 1
E|------| |-------|   |-------|   |-------|
B|------| |-------|   |-------|   |-------|
G|------| |-------|x3 |-------|x2 |-------|x2
D|-00-0-| |-000-0-|   |-444-4-|   |-777-7-|
A|-00-0-| |-000-0-|   |-444-4-|   |-777-7-|
D|-00-0-| |-000-0-|   |-444-4-|   |-777-7-|
   .. .     ... .       ... .       ... .
E|---------|---------|---------|---------|---------|---------|---------|-------|
B|---------|---------|---------|---------|---------|---------|---------|-------|
G|---------|---------|---------|---------|---------|---------|---------|-------|
D|-0-0-000-|-2-2-222-|-4-4-444-|-7-7-777-|-0-0-000-|-2-2-222-|-4-4-444-|-7-----|
A|-0-0-000-|-2-2-222-|-4-4-444-|-7-7-777-|-0-0-000-|-2-2-222-|-4-4-444-|-7(x8)-|
D|-0-0-000-|-2-2-222-|-4-4-444-|-7-7-777-|-0-0-000-|-2-2-222-|-4-4-444-|-7-----|
   > >       > >       > >       > >       > >       > >       > >
Guitar 2
E|---------------------------|----------------------------------------------|
B|--------------101010-999---|-101010-----1010-999-----1010-9h10------------|
G|-9~-7-6~6-9~9------------9-|--------999----------999-----------11-9-7-6-9-|
D|---------------------------|----------------------------------------------|
A|---------------------------|----------------------------------------------|
D|---------------------------|----------------------------------------------|

[Chorus]

Bridge
Guitar 1
E|-------------------------|-------------|
B|-------------------------|-------------|
G|-------------------------|-------------|
D|-0-----2-----4-----7-----|-0-----2-----|
A|-0(x8)-2(x8)-4(x8)-7(x8)-|-0(x8)-2(x5)-|
D|-0-----2-----4-----7-----|-0-----2-----|
                                   .
Guitar 2
E|-------------------------------------|-------------|
B|-------------------------------------|-------------|
G|-9-----11----9-----6-6-6-6--4-4--6-6-|-------------|
D|-x(x8)-x(x8)-x(x8)-x-x-x-x--x-x--x-x-|-0-----2-----|
A|-7-----13----7-----4-4-4-4--2-2--4-4-|-0(x8)-2(x5)-|
D|-------------------------------------|-0-----2-----|
                                               .
Breakdown
Both Guitars
E|-----------|------------------|---------------|-------------|
B|-----------|------------------|---------------|-------------|
G|-----------|------------------|---------------|-------------|x2
D|-00-000000-|-00-00000000-0-00-|-00-000000-000-|-------------|
A|-00-000000-|-00-00000000-0-00-|-00-000000-000-|-------------|
D|-00-000000-|-00-00000000-0-00-|-00-000000-000-|-4-2-4-2-4-2-|
   .. ......   .. ........ . ..   .. ...... ...

[Chorus 2 (Intro)]

[Chorus x2]

Key:
. Palm mute
> Cut the note off short
h hammer on
x mute
~ let ring
Tap to rate this tab
# A B C D E F G H I J K L M N O P Q R S T U V W X Y Z