Song name
# A B C D E F G H I J K L M N O P Q R S T U V W X Y Z

Secrets - Ready For Repair tab

Ready For Repair Tab
Drop B- B F# B C# G# E

I did this whole thing by ear, so expect mistakes, especially on the lead guitar. 
Any suggestions are happily welcomed. 

Key-
~ hold note or let ring
/ slide or quick change

Intro/Chorus - Both
|---------------------------|-------------------------|
|---------------------------|-------------------------|
|---------------------------|-------------------------|
|-7-7-7--10~-10-10--5-5-5-5-|-3-3-3--0~-0-0--3-3-3-3--|
|-7-7-7--10~-10-10--5-5-5-5-|-3-3-3--0~-0-0--3-3-3-3--|
|-7-7-7--10~-10-10--5-5-5-5-|-3-3-3--0~-0-0--3-3-3-3--|

|----------------------------|-----------------------------|
|----------------------------|-----------------------------|
|----------------------------|-----------------------------|
|-7-7-7-7-7--10~-10-10-10-10-|-3-3--3--3--0-0--0-0--3-3-3--|
|-7-7-7-7-7--10~-10-10-10-10-|-3-3--3--3--0-0--0-0--3-3-3--|
|-7-7-7-7-7--10~-10-10-10-10-|-3-3--3--3--0-0--0-0--3-3-3--|

Verse - 
Lead
|------------------------------------------------|
|------------------------------------------------|
|------------------------------------------------|
|-3~----3/5~---0~---0~----7~---7~---3~---3~------|
|-3~----3/5~---0~---0~----7~---7~---3~---3~------|
|-3~----3/5~---0~---0~----7~---7~---3~---3~------|

Rhythm
|--------------------|------------------------------|
|--------------------|------------------------------|
|--------------------|------------------------------|
|--------------------|------------------------------| x2
|--------------------|------------------------------|
|-7-7-7-7/10/7-7-7-7-|-7-7-7-7/10/3-3-3-3/2/3-3-3-3-|

Bridge - Both
|--------------------------------|
|--------------------------------|
|--------------------------------| x4
|-5--5--3-3-5-5---2--2--0-0-3-3--|
|-5--5--3-3-5-5---2--2--0-0-3-3--|
|-5--5--3-3-5-5---2--2--0-0-3-3--|

|-----------------|-----------|
|-----------------|-----------|
|-----------------|-----------|
|-3~------0~------|-----------|
|-3~------0~------|-----------|
|-3~------0~------|-10-10-10--|
                         
Repeat Chorus 2x

Repeat Verse 

2nd Bridge-
Lead                                -----
|---------------------------------|      |
|-------9-----9-------------------|      |
|---10-----8------10------8---9---|      |
|---------------------7-----------| 3x   |
|---------------------------------|      |
|---------------------------------|      |
                                         | 2x
|---------------------------------|      |
|---10----------------------------|      |
|-------11------------------------|      |
|-----------11------10---9---11---|      |
|---------------11----------------|      |
|---------------------------------|      |
                                    -----
Rhythm Repeat Bridge 

Repeat Chorus x2

Pre-Breakdown-
Lead- 
|--------------8~-----------------------7~----------|
|--10------9-------9/10/11----10-----9-----9/10/11--|
|------11-------------------------7-----------------| 4x
|---------------------------------------------------|
|---------------------------------------------------|
|---------------------------------------------------|

Rhythm-                                          ------
|----------------------------------------------|       |
|----------------------------------------------|       |
|----------------------------------------------|       |
|--------------3~--------------7~--------------|       |
|--------------3~--------------7~--------------|       |
|3~-3-3-3--3-3-3~--7~-7-7--7-7-7~--9-10--2-2-2-|       |
                                                       | 2x
|----------------------------------------------|       |
|----------------------------------------------|       |
|----------------------------------------------|       |
|--------------3~------------7~------------2-2-|       |
|--------------3~------------7~------------2-2-|       |
|3~-3-3-3--3-3-3~--7~-7-7--7-7-7~--9-10-9--2-2-|       |
                                                -------
Breakdown - Both
|--------------------------------------------|
|--------------------------------------------|
|--------------------------------------------|
|--------------------------------------------|
|-3--3-3--3--0--0-0--0--7--7-7--7--5--5-5--5-|
|-3--3-3--3--0--0-0--0--7--7-7--7--5--5-5--5-|

|------------------------------------------------|
|------------------------------------------------|
|------------------------------------------------|
|------------------------------------------------|
|-3--3-3--3--0--0-0--0--7--7-7--7--5--5-5--5-5-5-|
|-3--3-3--3--0--0-0--0--7--7-7--7--5--5-5--5-5-5-|

Repeat Chorus 2x

Outro 
Lead- Repeat 2nd Bridge 2x

Rhythm-
|-------------------------------------------------------------|
|-------------------------------------------------------------|
|-------------------------------------------------------------|
|--3-3--3-3-3-3--0-0--0-0-0-0--2-2--2-2-2-2--7-7-7-7--5-5-5-5-|
|--3-3--3-3-3-3--0-0--0-0-0-0--2-2--2-2-2-2--7-7-7-7--5-5-5-5-|
|--3-3--3-3-3-3--0-0--0-0-0-0--2-2--2-2-2-2--7-7-7-7--5-5-5-5-|

End on-
|-----|
|-----|
|-7~--|
|-7~--|
|-7~--|
|-----|

Tap to rate this tab
# A B C D E F G H I J K L M N O P Q R S T U V W X Y Z