Guitaretab - guitar tabs
Song name
# A B C D E F G H I J K L M N O P Q R S T U V W X Y Z

Section 8 - Some Random Song tab

I can't find Section 8 on google or anything!!! the only web page i could find from them
for 13 yr old's, this band is pretty good!
this song is kinda weird, but good.
[ Tab from: ]
[repeat 8x]
E --0--------------------------------------------------------|
B -------------------------------------0-0-------0-0---------|
G ----------7-7--5-5--3-3--2-2--------------2-2-------2-2----|
D -----------------------------------------------------------|
A --0-------0-0--0-0--0-0--0-0---------0-0--0-0--0-0--0-0----|
E --0-------0-0--0-0--0-0--0-0---------0-0--0-0--0-0--0-0----|

back to beginning, while first guitar plays the above tab, the second guitar plays this:

E --0--0----------------------------------------------------|
B ----------------------------------------------------------|
G ----------------------------------------------------------| repeat.
D ----------------------------------------------------------|
A --0--0----------------------------------------------------|
E --0--0----------------------------------------------------|