Song name
# A B C D E F G H I J K L M N O P Q R S T U V W X Y Z

See You Next Tuesday - Paraphilia tab

Help us improve GuitareTab! Take a short survey!


This is my first tab ever but i tried! Heres most of the song and i think its 
pretty close to right! Listen to the songs for when the riffs are played
enjoy!


-----------------------------------------------------------------------------



1st riff
e------------------|
B------------------|
G------------------|
D------------------|
A----2---2---2---2-|
D--0---0---0---0---|


2nd riff
e-------------------------------------------|
B-------------------------------------------|
G-----5---4------5--------5---4------5------|
D---7---7------7---7----7---7------7---7----|
A-------------------------------------------|
D-0-------------------0---------------------|


3rd riff
e------------------------|
B------------------------|
G------------------------|
D--0-2--0-2--0-2--0-2----|
A--0-2--0-2--0-2--0-2----|
D--0-0--0-0--0-0--0-0----|


4th riff
e-----------------------------|
B-----------------------------|
G-----------------------------|
D--0-0-0-0-0-0-2-2-2-3-3-3----|
A--0-0-0-0-0-0-2-2-2-3-3-3----|
D--0-0-0-0-0-0-0-0-0-0-0-0----|
Related for Paraphilia tab