Song name
# A B C D E F G H I J K L M N O P Q R S T U V W X Y Z

See You Next Tuesday - A Portable Death Ray tab

this is the 2nd verse and the last breakdown.

          | all harmonics |
|-------------------------------------------------------------------------|
|----------3-3------------------------------------------------------------|
|--------------333-----------------------------------x4-------------------|
|-------------------33-3-3------------------------------------------------|
|0-0-0-0------------------------------------------------------------------|
|0-0-0-0------------------------------------------------------------------|
 . . . .  | all harmonics |

this part is really tricky. to get the harmonics, you have to hover your index finger 
OPPISITE WAY (so your finger is pointing downward)right behind the fret, and do as follows.


outro/breakdown

|--------------------------------------19--------------------------------|
|-----------------------------------18-----------------------------------|
|---------------x-----------------17-----------how-ever-many-times-------|
|------------------------------------------------------------------------|
|-0-0-0-0-0-0------0-0-0-0-0-0-------------------------------------------|
|-1-1-1-1-1-1------1-1-1-1-1-1-------------------------------------------|
  . . . . . .      . . . . . .
       ^              /
strum these hard-----

i know its not all right, but its something along the lines of that.

just mess around with it, and if you want any other parts to the song, just tell me.
Tap to rate this tab
# A B C D E F G H I J K L M N O P Q R S T U V W X Y Z