Song name
# A B C D E F G H I J K L M N O P Q R S T U V W X Y Z

See You Next Tuesday - Embers Of Our Love Burn With You tab

this isnt the whole song.
it is a start though.

embers of our love burn with you- see you next tuesday.


intro.

guiatar one-
                                                            (2)
d-----000----2*______-----000----2*_______-----000----2*_______--------------|
b-3-2-----3-2---------4-3-----4-3----------5-4-----5-4----------7-4-3-6-3-4~-|
g----------------------------------------------------------------------------|
d----------------------------------------------------------------------------|
a----------------------------------------------------------------------------|
e----------------------------------------------------------------------------|
guiatar two-
                                                            (2)
d-----000----00-0-0-0-----000-----00-0-0-0-----000-----00-0-0-0--------------|
b-3-2-----3-2---------4-3-----4-3----------5-4-----5-4-----------------------|
g----------------------------------------------------------------------------|
d---------------------------------------------------------------7~4~3-6-3-4~-|
a----------------------------------------------------------------------------|
e----------------------------------------------------------------------------|
Tap to rate this tab
# A B C D E F G H I J K L M N O P Q R S T U V W X Y Z