Song name
# A B C D E F G H I J K L M N O P Q R S T U V W X Y Z

See You Soon - Fall In Love tab

Title: Fall In Love	
Artist: See You Soon
Album: 
Author: lucas99801


Intro:

E|-----2-------2-------2-------3---|-----2-------3-------5-------0---|
B|-----0-------0-------0-------0---|-----0-------0-------0-------0---|
G|---------------------------------|---------------------------------|
D|---------------------------------|---------------------------------|
A|-2-------2-------2-------2-------|-2-------2-------2-------2-------|
E|---------------------------------|---------------------------------|

E|---------------------------------|---------------------------------|
B|-----2-------3-------2-------2---|-----2-------3-------5-------0---|
G|-----0-------0-------0-------0---|-----0-------0-------0-------0---|
D|---------------------------------|---------------------------------|
A|-0-------0-------0-------0-------|-0-------0-------0-------0-------|
E|---------------------------------|---------------------------------|


E|-----2-------2-------2-------3---|-----2-------0-------2-------0---|
B|-----0-------0-------0-------0---|-----0-------0-------0-------0---|
G|---------------------------------|---------------------------------|
D|---------------------------------|---------------------------------|
A|-2-------2-------2-------2-------|-2-------2-------2-------2-------|
E|---------------------------------|---------------------------------|


E|---------------------------------|---------------------------------|
B|-----2-------3-------2-------2---|-----2-------3-------5-------0---|
G|-----0-------0-------0-------0---|-----0-------0-------0-------0---|
D|---------------------------------|---------------------------------|
A|-0-------0-------0-------0-------|-0-------0-------0-------0-------|
E|---------------------------------|---------------------------------|


Verse:

E|-----2-------2-------2-------2---|-----2-------2-------2-------2---|
B|-----0-------0-------0-------0---|-----0-------0-------0-------0---|
G|---------------------------------|---------------------------------|
D|---------------------------------|---------------------------------|
A|-2-------2-------2-------2-------|-2-------2-------2-------2-------|
E|---------------------------------|---------------------------------|

E|---------------------------------|---------------------------------|
B|-----2-------3-------2-------2---|-----2-------3-------5-------0---|
G|-----0-------0-------0-------0---|-----0-------0-------0-------0---|
D|---------------------------------|---------------------------------|
A|-0-------0-------0-------0-------|-0-------0-------0-------0-------|
E|---------------------------------|---------------------------------|


Verse Outro:

E|-----2-------2-------2-------2---|-----2-------2-------2-------2---|
B|-----0-------0-------0-------0---|-----0-------0-------0-------0---|
G|---------------------------------|---------------------------------|
D|---------------------------------|---------------------------------|
A|-2-------2-------2-------2-------|-2-------2-------2-------2-------|
E|---------------------------------|---------------------------------|


E|-----2-------2-------2-------2---|---------------------------------|
B|-----3-------3-------3-------3---|---------------------------------|
G|---------------------------------|---------------------------------|
D|---------------------------------|---------------------------------|
A|-0-------0-------0-------0-------|---------------------------------|
E|---------------------------------|-3-------------------------------|


Chorus:
E|---------------------------------|---------------------------------|
B|-----3-------3-------5-------5---|-----7-------7-------7-------7---|
G|-----0-------0-------0-------0---|-----0-------0-------0-------0---|
D|---------------------------------|---------------------------------|
A|---------------------------------|---------------------------------|
E|-3-------3-------5-------5-------|-7-------7-------7-------7-------|


Chorus Outro:

E|---------------------------------|---------------------------------|
B|-----3-------3-------5-------5---|-----------------7---------------|
G|-----0-------0-------0-------0---|-------------0-------------------|
D|---------------------------------|-----0---------------------------|
A|---------------------------------|---------------------------------|
E|-3-------3-------5-------5-------|-7-------7-----------------------|




Song:

Intro x1
Verse x2
Verse Outro x1
Chorus x3
Chorus Outro x1
Intro x1
Verse x2
Verse Outro x1
Chorus x6
Chorus Outro x1
Intro x1
Chorus x4
Intro x.5



Lyrics:

Coming so close to me now you're a part of me
You're everything that I could not explain
And now I want to show you what I've always tried to be

So can we just fall in love
I see home in your eyes and
You will always be my best

Waiting for so long for too long now I confess
I've tried to find you in so many ways and I've failed
But now we're on fire and I'm so calm I can finally rest in you

So can we just fall in love
I see home in your eyes and
You will always be my best

And baby I don't care how far away you are
And baby I will be there when the sun goes down and I will never let go
Tap to rate this tab
 
# A B C D E F G H I J K L M N O P Q R S T U V W X Y Z