Guitaretab - guitar tabs
Song name
# A B C D E F G H I J K L M N O P Q R S T U V W X Y Z
Home / S / Seeds / Push It tab

Seeds - Push It tab

Tabbed by:Nik Nelson

Intro (8x) :

------------------------------
------------------------------
---8---------8---------------
------------------------------
------------------------------
-------0------------0--------


Before Verse (7x) :

-----------------------------------------------     -----------------------------
-----------------------------------------------    ------------------------------           Play this part after the 7th one.
-----------------------------------------------    ---8----------8--------------
---0---5----3----0---0---5---3-------------     ------------------------------
---0---5----3----0---0---5---3-------------     ------------------------------
---0---5----3----0---0---5---3-------------     --------0------------0-------

Use this riff for the verse and chorus.


Play this after 2nd chorus (2x) :

-----------------------------------------------------------------------------------------------------------------
-----------------------------------------------------------------------------------------------------------------
----------------------------------------------------------------------------------------------------------------
--3----1------------0----5----3----0----0----5----3--------------0-----5----3----0-----0----5----3-------
--3----1------------0----5----3----0----0----5----3--------------0-----5----3----0-----0----5----3-------
--3----1------------0----5----3----0----0----5----3--------------0-----5----3----0-----0----5----3-------
[ Tab from: http://www.guitaretab.com/s/seeds/22636.html ]
Related for Push It tab