Song name
# A B C D E F G H I J K L M N O P Q R S T U V W X Y Z

Seeds - Cold tab

* = muffel with hand

the intro is perfect but the refrain sounds like it is right but i use bar cords...it sounds pretty frekin good thought!! rock on!!

                                                     _____
-------------------------------------   \    /   |  |
-------------------------------------    \  /    |  |
-------------------------------------     \/     |  |_____
---0-0-*-0-0-0-0-*-0-0-*-0-0-0-0-----     /\     |  |     |
---0-0-*-0-0-0-0-*-0-0-*-0-0-0-0-----    /  \    |  |     |
---0-0-*-0-0-0-0-*-0-0-*-0-0-0-0-----   /    \   |  |_____|

refrain ( cold! im so cold!)

         
----3---------3---1---3---10------8-----------  \    /   |     |
----3---------3---1---3---10------8-----------   \  /    |     |
----5---------5---3---5---12------10----------    \/     |_____|
----5---------5---3---5---12------10----------    /\           |
----3---------3---1---3---10------8-----------   /  \          |
----3---------3---1---3---10------8-----------  /    \         |

                                                  _____
-------------------------------------   \    /   |     |
-------------------------------------    \  /    |     |
-------------------------------------     \/     |_____| 
---0-0-*-0-0-0-0-*-0-0-*-0-0-0-0-----     /\     |     |   
---0-0-*-0-0-0-0-*-0-0-*-0-0-0-0-----    /  \    |     |   
---0-0-*-0-0-0-0-*-0-0-*-0-0-0-0-----   /    \   |_____|




----3---------3---1---3---10------8-----------  \    /   |     |
----3---------3---1---3---10------8-----------   \  /    |     |
----5---------5---3---5---12------10----------    \/     |_____|
----5---------5---3---5---12------10----------    /\           |
----3---------3---1---3---10------8-----------   /  \          |
----3---------3---1---3---10------8-----------  /    \         |


                                                  _____
-------------------------------------   \    /   |     |
-------------------------------------    \  /    |     |
-------------------------------------     \/     |_____| 
---0-0-*-0-0-0-0-*-0-0-*-0-0-0-0-----     /\     |     |   
---0-0-*-0-0-0-0-*-0-0-*-0-0-0-0-----    /  \    |     |   
---0-0-*-0-0-0-0-*-0-0-*-0-0-0-0-----   /    \   |_____|


if you need any help with these just email me at slipknot666frv@aol.com
Tap to rate this tab
 
# A B C D E F G H I J K L M N O P Q R S T U V W X Y Z