Song name
# A B C D E F G H I J K L M N O P Q R S T U V W X Y Z

Seeed - Ding Thing tab

----------------------------------------------------------------------------
			     Ding / Thing - Seeed
----------------------------------------------------------------------------
Tabbed by: Martin Messner
Email: BigBonsai@hotmail.de

Tuning: E-Standard

The Song contains lots of Instruments, which are very quiet and only have one or two 
in it. There Are 3 main instruments:


The "Ding"-Thing (sometimes without the 10th fret, sometimes faster)
e|-----15----------10-----------15----------10----------15-----------------|
B|-------------------------------------------------------------------------|
G|-------------------------------------------------------------------------|
D|-------------------------------------------------------------------------|
A|-------------------------------------------------------------------------|
E|-------------------------------------------------------------------------|

Xylophone (like in the intro)
e|---12-12-12-12-10---10-10--15p12--10----------------------|
B|----------------------------------------------------------|
G|----------------------------------------------------------|
D|----------------------------------------------------------|
A|----------------------------------------------------------|
E|----------------------------------------------------------|

The loud bass
G|-------------------------------------------------------------------------|
D|----0------0------0------0--1--0-----0-----0-----0-(1)-------------------|
A|-------------------------------------------------------------------------|
E|-------------------------------------------------------------------------|
(the "loud" bass appears not often, but there is a very, very quiet version of it, if u 
carefully)


Other Instruments

Strings(2nd part of the Chorus)Xylophone(Intro, compared to others loud)
e|---------------------|                |---------------------|
B|---------------------|                |---------------------|
G|--0---12---17---19---|                |---7---7---7---7-----|
D|---------------------|                |---------------------|
A|---------------------|                |---------------------|
E|---------------------|                |---------------------|
                               (lands on the exact other beat than the bass)
                               (my opinion: bass=beat Xylophone=off-beat)


second Strings(whole chorus,very quiet)  String-Outro(deep Strings or Bass)
e|-------------------|                   |---------------------|
B|-------------------|                   |---------------------|
G|--7---7---7---7-5--|                   |-------0---5---7-----|
D|-------------------|                   |---------------------|
A|-------------------|                   |---------------------|
E|-------------------|                   |---3-----------------|


I hope i got all instruments out and didn't annoy you to much, because of those many 
patterns of melodies ;)

Really, listen to the Song and try to figure "real" chords out...

Martin
Tap to rate this tab
# A B C D E F G H I J K L M N O P Q R S T U V W X Y Z