Song name
# A B C D E F G H I J K L M N O P Q R S T U V W X Y Z

Seeed - Molotov tab

-------------------------------------------------------------------------------
                             MOLOTOV - Seeed
-------------------------------------------------------------------------------



Tabbed by: Adrian Urban
Email: -

Tuning: Standard (Low to high: EADGBe)


Play with lots of fuzz, toggle switch set to bridge-pickup, and your tone about half full.


                    Fig. 1

e|---------------------------------------------------------------------------|
B|---------------------------------------------------------------------------|
G|---------------------------------------------------------------------------|
D|---------------------------------------------------------------------------|
A|---6/12b~------------------------------------------------------------------|
E|---------------------------------------------------------------------------|
  ### Keep the bent string ringing until you hear your amp's feedback ### 


                    Fig. 2

e|---------------------------------------------------------------------------|
B|---------------------------------------------------------------------------|
G|---------------------------------------------------------------------------|
D|---------------------------------------------------------------------------|
A|---8p7---6p5---2p4--1-1-1-1-1-1--------------------------------------------|
E|---------------------------------------------------------------------------|


                    Fig. 3
                                           | 1, 2, 3      x3  | 4 
e|--------------------------------------------------------||----------------|
B|------------------------------------------------------O-||----------------|
G|--------------------------------------------------------||----------------|
D|---3--5--6------6--8--10-----11-10-6------6--8--10------||---6--6--6\5----|
A|---1--3--4------4--6--8------9--8--4------4--6--8-----O-||---4--4--4\3----|
E|--------------------------------------------------------||----------------|
  ### Power chord playing is optional. You can also just play on the A string ### 



Fig. 1
Fig. 2 (x16)
Fig. 3 (x2)
Fig. 2 (x4)
Fig. 1 (x16)



Tab also applies to the bass (with the notes being played one octave lower, of course)!



************************************

| /   Slide up
| \   Slide down
| p   Pull-off
| ~   Vibrato
| b   Bend
| *   Palm muted note

************************************
Tap to rate this tab
 
# A B C D E F G H I J K L M N O P Q R S T U V W X Y Z