Song name
# A B C D E F G H I J K L M N O P Q R S T U V W X Y Z

Seeker Lover Keeper - Theme I tab

-------------------------------------------------------------------------------
			     THEME I - Seeker Lover Keeper
-------------------------------------------------------------------------------
Tabbed by: roe

Tuning: Standard

VERSE

e|--------0------------0-----------0-------------0---------------------------|
B|--------0------------0-----------0-------------0---------------------------|
G|---------------------------------------------------------------------------|
D|---------------------------------------------------------------------------|
A|---2----------2-------------5------------5---------------------------------|
E|---------------------------------------------------------------------------|

e|------------0-------------0------------------0-----------------0-----------|
B|------------0-------------0------------------0-----------------0-----------|
G|---------------------------------------------------------------------------|
D|---------------------------------------------------------------------------|
A|----7--------------7----------------7--------------------7-----------------|
E|---------------------------------------------------------------------------|

CHORUS


e|------------0-----------0------------0----------0--------------------------|
B|------------0-----------0------------0----------0--------------------------|
G|---------------------------------------------------------------------------|
D|---------------------------------------------------------------------------|
A|------9-----------9-------------8-----------8------------------------------|
E|---------------------------------------------------------------------------|

e|------------0-------------0------------------0-----------------0-----------|
B|------------0-------------0------------------0-----------------0-----------|
G|---------------------------------------------------------------------------|
D|---------------------------------------------------------------------------|
A|----7--------------7----------------7--------------------7-----------------|
E|---------------------------------------------------------------------------|

Lyrics

VERSE
We exit this world alone
As fragile as weíre born
A life just like a moment in time
Too vulnerable you chose to hide
It broke your heart to lose someone
As desperate as a loaded gun
You thought that you would learn to survive
To make your way alone in this life

CHORUS
I just want you to know
Wherever you go
It follows like a ghost 
The burdenís not just your own
If youíre a Seeker Lover Keeper

VERSE
Iíve waited for this moment to arrive
When you let go to survive
Give it up and take it on
To open up and love someone
Scratch it off, reveal new skin
Casting off what you held in
Life is just a moment in time
Too short to run and hide

CHORUS
I just want you to know
Wherever you go
It follows like a ghost 
The burdenís not just your own
If youíre a Seeker Lover Keeper
 
VERSE
Ooh ooh ohh

CHORUS
I just want you to know
Wherever you go
It follows like a ghost 
The burdenís not just your own
I just want you to know
How near or far you go
Youíll never be alone
Your heart it has a home
If youíre a Seeker, a Lover, and a Keeper.

VERSE riff 'til end
Tap to rate this tab
 
# A B C D E F G H I J K L M N O P Q R S T U V W X Y Z