Song name
# A B C D E F G H I J K L M N O P Q R S T U V W X Y Z

Seeking First Light - Syntax Error tab

-------------------------------------------------------------------------------
                             SYNTAX ERROR (Intro) - Seeking First Light
-------------------------------------------------------------------------------
Tabbed by: Matt.S
E-mail:

Tuning: C G C F A D

(clean)
e|---------------------------------------------------------------------------|
B|---------------------------------------------------------------------------|
G|------------5--------------------------------------------------------------|
D|------6--------6--------6-----8--6--------6-----5-----6--5h6p5-------------|
A|---4-----4-----------6-----6-----------8-----8-----8------------6----------|
E|---------------------------------------------------------------------------|

(distortion)
e|---------------------------------------------------------------------------|
B|---------------------------------------------------------------------------|
G|------------5--------------------------------------------------------------|
D|------6--------6-----6-------6-----8--6-----6------6-----5-----6--5h6p5----|
A|---4-----4--------4-------6-----6--------6------8-----8-----8------------6-|
E|---------------------------------------------------------------------------|
     pm    pm       pm      pm    pm       pm     pm    pm    pm      
   
http://www.myspace.com/seekingfirstlightaus

************************************
Tap to rate this tab
 
# A B C D E F G H I J K L M N O P Q R S T U V W X Y Z