Guitaretab - guitar tabs
Song name
# A B C D E F G H I J K L M N O P Q R S T U V W X Y Z

Seemless - War Peace tab

----------------------------------------------------------------------------
			     WAR/PEACE - SEEMLESS
----------------------------------------------------------------------------
Tabbed by:sean crow
Email: die_for_nothing_323@hotmail.com

Band website- "www.seemlessband.com" ...(coming soon though)
              "www.myspace.com/seemless"

Tuning: CGCFAD (drop C)

D|-------------------------------------------------------------------------|
A|-------------------------------------------------------------------------|
F|-------------------------------------------------------------------------|
C|-------------------------------------------------------------------------|
G|-------------------------------------------------------------------------|
C|-5-3-5---5-5-3---5-3-5-5-3-5---5-5-5-3----- (2X) ------------------------|
   . . .   . . .   . . .  . . .   . . . .
D|-------------------------------------------------------------------------|
A|-------------------------------------------------------------------------|
F|-------------------------------------------------------------------------|
C|-------------------------------------------------------------------------|
G|------------15-----------------------------------------------------------|
C|-5-3-5/---X-15---5-5-3---5-3-5-5-3-5---5-5-5-3---------------------------|

D|-------------------------------------------------------------------------|
A|-------------------------------------------------------------------------|
F|-------------------------------------------------------------------------|
C|-------------------------------------------------------------------------|
G|------------17-15--------------------------------------------------------|
C|-5-3-5/---X-17-15---5-5-3---5-3-5-5-3-5---5-5-5-3------------------------|

D|-------------------------------------------------------------------------|
A|-------------------------------------------------------------------------|
F|-------------------------------------------------------------------------|
C|-------7h9p7h9p7h9p7-----------------------------------------------------|
G|-------------------------------------------------------------------------|
C|-5-3-5---------------5-5-3---5-3-5-5-3-5---5-5-5-3-----------------------|

D|-------------------------------------------------------------------------|
A|-------------------------------------------------------------------------|
F|-------------------------------------------------------------------------|
C|-------------------------------------------------------------------------|
G|-----------17-15---------------------------------------------------------|
C|-5-3-5---X-17-15---5-5-3---5-3-5-5-3-5---5-5-5-3-------------------------|
[ Tab from: http://www.guitaretab.com/s/seemless/75779.html ]
D|-------------------------------------------------------------------------|
A|-------------------------------------------------------------------------|
F|-------------------------------------------------------------------------|
C|-------------------------------------------------------------------------|
G|-------------------------------------------------------------------------|
C|-5-3-5---X-5-5-3---5-3-5-5-3-5---5-5-5-3---(2X)--------------------------|
   . . .     . . .   . . . . . .   . . . .
D|-------------------------------------------------------------------------|
A|-------------------------------------------------------------------------|
F|-------------------------------------------------------------------------|
C|---------------7---9-7-9-9-7-9---9-9-9-7---------------------------------|
G|-------------------------------------------------------------------------|
C|-5-3-5---X-5-5-----------------------------------------------------------|
   . . .     . .
D|-------------------------------------------------------------------------|
A|-------------------------------------------------------------------------|
F|-------------------------------------------------------------------------|
C|---------------------------------5-5-5-3---------------------------------|
G|---------------------------------5-5-5-3---------------------------------|
C|-5-3-5---X-5-5-3---5-3-5-5-3-5---5-5-5-3---------------------------------|
   . . .     . . .
D|--------------------------------------------------------------|
A|--------------------------------------------------------------|
F|--------------------------------------------------------------|
C|-3-X---5/-6/-8>---3>------------------------------------------|
G|-3-X---5/-6/-8>---3>---3-3-5-3--------------------------------|
C|-3-X---5/-6/-8>---3>---3-3-5-3--5-3---------------------------|

D|--------------------------------------------------------------|
A|--------------------------------------------------------------|
F|--------------------------------------------------------------|
C|-3-X---5/-6/-8>---3>------------------------------------------|
G|-3-X---5/-6/-8>---3>-----7-10-9---7-10-9----------------------|
C|-3-X---5/-6/-8>---3>---0---------0----------------------------|
                         .
D|--------------------------------------------------------------|
A|--------------------------------------------------------------|
F|--------------------------------------------------------------|
C|-3-X---5/-6/-8>---3>------------------------------------------|
G|-3-X---5/-6/-8>---3>---3-3-5-3--------------------------------|
C|-3-X---5/-6/-8>---3>---3-3-5-3--5-3---------------------------|

D|--------------------------------------------------------------|
A|--------------------------------------------------------------|
F|--------------------------------------------------------------|
C|-3-X---5/-6/-8>---3>------------------------------------------|
G|-3-X---5/-6/-8>---3>-----7-10-9---7-10-9----------------------|
C|-3-X---5/-6/-8>---3>---0---------0----------------------------|
                         .

X - MUTE NOTE (FRETTING HAND)
. - PALM MUTE (PICKING HAND)
h - HAMMER ON
p - PULL-OFF
/ - SLIDE UP
> - SUSTAIN NOTE


Well this is officially my first ever tab that i have made, i aslo noticed NOBODY has
ANY seemless songs as of yet!!  Why F***ING NOT?!?!?!?

You got any tips/suggestions/corrections/comments/(slander)/or anything else email me at -
--die_for_nothing_323@hotmail.com  ---

p.s.  can any of u please try and tab "live again" by silent civilian, ive been tryin
a month and cant get it!!  PLEASE HELP!!

===============================================================================
Advertisement will be closed in 10 seconds