Song name
# A B C D E F G H I J K L M N O P Q R S T U V W X Y Z

Sees - Nail Biter tab

tabbed by : h3llo
I AM ONLY 12 YEARS OLD, So I AM A NOOB!!!!!!!!!!!!!!!


* = start with bend and then unbend
% = bend and release
Intro/Riff/Chorus
e|----------------------------------------------------------------------------|
B|----------------------------------------------------------------------------|
G|----------------------------------------------------------------------------|
D|----------------------------------------------------------------------------|
A|-----------8-7-------------------8-7---------------8-7----------------------|
E|--5*-5-5-------4--5-5----5-5-5-------4-5-5-5--5%-5------4-5-5-5-6-5-6-4-5---|

verse should be mutes if not tell in the comments!

Bridge
e|-------------------------------------------------------------------------------|
B|-------------------------------------------------------------------------------|
G|------------------------------------------------------------------4------------|
D|---------------------------------------------------------------------4--6-7-6--|
A|---------8-7--------------8-7-------10-8---------8-7-10-8----------------------|
E|--4-4---------4--4----4---------4--------4--4--------------4-4-----------------|

Tap to rate this tab
# A B C D E F G H I J K L M N O P Q R S T U V W X Y Z