Song name
# A B C D E F G H I J K L M N O P Q R S T U V W X Y Z

Seether - Fine Again tab

#----------------------------------PLEASE NOTE---------------------------------#
#This file is the author's own work and represents their interpretation of the #
#song. You may only use this file for private study, scholarship, or research. #
#------------------------------------------------------------------------------##

                                   FINE AGAIN
                             As recorded by Seether
                        (From the 2002 Album DISCLIAMER)


Gtr I (E A D G B E) - '*clean standard'
Gtr II (B E A D F# B) - 'steel droped'
Gtr III (B E A D F# B) - 'droped dist'
Gtr IV (E A D G B E) - 'normal dist.'

 Intro
  Q=88
 4/4
  Gtr I
  E  E  E E  +E  E E E     +E  E E  E  +H
|------------------------|------------------------|
|---------9--(9)---9-9---|-(9)---9-10-(10)--------|
|------11--------9-------|-----9------------------|
|---11-------------------|------------------------|
|-9----------------------|------------------------|
|------------------------|------------------------|
|
| Gtr II
| E  E  E E   E  E E S S    E  E E  E   Q   E S S
|------------------------|------------------------|
|------------------------|------------------------|
|-------4----------7-----|-----6------------------|
|----4-----------7---0-0-|-------7------5---5-x---|
|-2-------2/--5------0-0-|--7-------7---5---5-x-0-|
|------------------------|--5-----------3---3-x---|


  Gtr I
  E E E  E   +E  E  E E     +E  E E  E  +H
|-------------------------|------------------------|
|-9---9-10--(10)---10-9---|-(9)---9----------------|
|---9------------9--------|-----9---11-(11)--------|
|-------------------------|------------------------|
|-------------------------|------------------------|
|-------------------------|------------------------|
|
| Gtr II
| E E E  E    E  E  E S S    E  E E  E   Q   E S S
|-------------------------|------------------------|
|-------------------------|------------------------|
|-----4-------------7-----|-----6------------------|
|---4------------7----0-0-|-------7------5---5-x---|
|-2------2/---5-------0-0-|--7-------7---5---5-x-0-|
|-------------------------|--5-----------3---3-x---|


   Verse one
    F#5       A5          E5        D5
    Gtr II
    Q  E. S S S E E S S   Q  E. S S S E E S S  4x
||----------------------|----------------------||
||o---------------------|---------------------o||
||--4--4--4-x-7-7-7-x-x-|----------------------||
||--4--4--4-x-7-7-7-x-x-|-7--7--7-x-5-5-5-x-x--||
||o-2--2--2-x-5-5-5-x-x-|-7--7--7-x-5-5-5-x-x-o||
||----------------------|-5--5--5-x-3-3-3-x-x--||


  F#5             A5           E5           D5
  Q  E.    S   S  S E E  S S     Q   E. S S S E E S S
|----------------------------|------------------------|
|----------------------------|------------------------|
|-4--4-----4---x--7-7-7--x-x-|------------------------|
|-4--4-----4---x--7-7-7--x-x-|---7---7--7-x-5-5-5-x-x-|
|-2--2-----2---x--5-5-5--x-x-|---7---7--7-x-5-5-5-x-x-|
|----------------------------|---5---5--5-x-3-3-3-x-x-|
|
| Gtr I
| Q  E   E    +Q.        E      +W
|-------14---(14)------------|------------------------|
|-------14---(14)-------12---|-(12)-------------------|
|----------------------------|------------------------|
|----------------------------|------------------------|
|----------------------------|------------------------|
|----------------------------|------------------------|


  F#5             A5          E5        D5
  Q  E.    S   S  S E E S S   Q  E. S S S E E S S
|---------------------------|----------------------|
|---------------------------|----------------------|
|-4--4-----4---x--7-7-7-x-x-|----------------------|
|-4--4-----4---x--7-7-7-x-x-|-7--7--7-x-5-5-5-x-x--|
|-2--2-----2---x--5-5-5-x-x-|-7--7--7-x-5-5-5-x-x--|
|---------------------------|-5--5--5-x-3-3-3-x-x--|
|
| Q  E   E    +H              W
|-------14---(14)-----------|----------------------|
|-------14---(14)-----------|----------------------|
|---------------------------|----------------------|
|---------------------------|----------------------|
|---------------------------|----------------------|
|---------------------------|----------------------|


  F#5              A5          E5                 D5
  Gtr II
  Q     E.   S  S  S E E S S    Q    E.    S   S  S E E S S
|----------------------------|------------------------------|
|----------------------------|------------------------------|
|-4-----4----4--x--7-7-7-x-x-|------------------------------|
|-4-----4----4--x--7-7-7-x-x-|--7----7-----7---x--5-5-5-x-x-|
|-2-----2----2--x--5-5-5-x-x-|--7----7-----7---x--5-5-5-x-x-|
|----------------------------|--5----5-----5---x--3-3-3-x-x-|
|
| Gtr I
| E  E  E  E   +E    E E E     +E  E E   E    +H
|----------------------------|------------------------------|
|----------9---(9)-----9-9---|-(9)---9--10---(10)-----------|
|------11------------9-------|-----9------------------------|
|---11-----------------------|------------------------------|
|-9--------------------------|------------------------------|
|----------------------------|------------------------------|


  F#5              A5           E5                  D5
                                        Gtr III
  Q   E.    S   S  S E  E S S    Q    E  S S   S  S E Q
|-----------------------------|---------------------------|
|-----------------------------|---------------------------|
|-4---4-----4---x--7-7--7-x-x-|---------------------------|
|-4---4-----4---x--7-7--7-x-x-|--7----7--x-x---x--x-5-5\--|
|-2---2-----2---x--5-5--5-x-x-|--7----7--x-x---x--x-5-5\--|
|-----------------------------|--5----5--x-x---x--x-3-3\--|
|
| E E E   E    +E    E  E E     +E  E E  E    +H
|-----------------------------|---------------------------|
|-9---9--10---(10)-----10-9---|-(9)---9-------------------|
|---9----------------9--------|-----9---11---(11)---------|
|-----------------------------|---------------------------|
|-----------------------------|---------------------------|
|-----------------------------|---------------------------|


   Chorus
    F#5         D5      B5        E5
    Gtr III
    Q  E. S S S E E E   Q  E. S S S E E S S  4x
||--------------------|----------------------||
||o-------------------|---------------------o||
||--4--4--4-x-x-------|----------------------||
||--4--4--4-x-x-5-5-5-|-2--2--2-x-7-7-7-7-7--||
||o-2--2--2-x-x-5-5-5-|-2--2--2-x-7-7-7-7-7-o||
||--------------3-3-3-|-0--0--0-x-5-5-5-5-5--||


  Gtr II
  E E E E  E E E S S   E E E E Q  E S S
|--------------------|------------------|
|--------------------|------------------|
|-----4--------7-----|---6--------------|
|---4--------7---0-0-|-----7---5--5-x---|
|-2-----2/-5-----0-0-|-7-----7-5--5-x-0-|
|--------------------|-5-------3--3-x---|


   Verse two
    F#5       A5          E5        D5
    Q  E. S S S E E S S   Q  E. S S S E E S S
||----------------------|----------------------||
||o---------------------|---------------------o||
||--4--4--4-x-7-7-7-x-x-|----------------------||
||--4--4--4-x-7-7-7-x-x-|-7--7--7-x-5-5-5-x-x--||
||o-2--2--2-x-5-5-5-x-x-|-7--7--7-x-5-5-5-x-x-o||
||----------------------|-5--5--5-x-3-3-3-x-x--||


  F#5              A5          E5                 D5
  Q     E.   S  S  S E E S S    Q    E.    S   S  S E E S S
|----------------------------|------------------------------|
|----------------------------|------------------------------|
|-4-----4----4--x--7-7-7-x-x-|------------------------------|
|-4-----4----4--x--7-7-7-x-x-|--7----7-----7---x--5-5-5-x-x-|
|-2-----2----2--x--5-5-5-x-x-|--7----7-----7---x--5-5-5-x-x-|
|----------------------------|--5----5-----5---x--3-3-3-x-x-|
|
| Gtr I
| E  E  E  E   +E    E E E     +E  E E   E    +H
|----------------------------|------------------------------|
|----------9---(9)-----9-9---|-(9)---9--10---(10)-----------|
|------11------------9-------|-----9------------------------|
|---11-----------------------|------------------------------|
|-9--------------------------|------------------------------|
|----------------------------|------------------------------|


  F#5             A5           E5           D5
  Gtr II
  Q  E.    S   S  S E E  S S     Q   E. S S S E E S S
|----------------------------|------------------------|
|----------------------------|------------------------|
|-4--4-----4---x--7-7-7--x-x-|------------------------|
|-4--4-----4---x--7-7-7--x-x-|---7---7--7-x-5-5-5-x-x-|
|-2--2-----2---x--5-5-5--x-x-|---7---7--7-x-5-5-5-x-x-|
|----------------------------|---5---5--5-x-3-3-3-x-x-|
|
| Gtr I
| Q  E   E    +Q.        E      +W
|-------14---(14)------------|------------------------|
|-------14---(14)-------12---|-(12)-------------------|
|----------------------------|------------------------|
|----------------------------|------------------------|
|----------------------------|------------------------|
|----------------------------|------------------------|


  F#5             A5          E5        D5
  Q  E.    S   S  S E E S S   Q  E. S S S E E S S
|---------------------------|----------------------|
|---------------------------|----------------------|
|-4--4-----4---x--7-7-7-x-x-|----------------------|
|-4--4-----4---x--7-7-7-x-x-|-7--7--7-x-5-5-5-x-x--|
|-2--2-----2---x--5-5-5-x-x-|-7--7--7-x-5-5-5-x-x--|
|---------------------------|-5--5--5-x-3-3-3-x-x--|
|
| Q  E   E    +H              W
|-------14---(14)-----------|----------------------|
|-------14---(14)-----------|----------------------|
|---------------------------|----------------------|
|---------------------------|----------------------|
|---------------------------|----------------------|
|---------------------------|----------------------|


  F#5              A5          E5                 D5
  Gtr II
  Q     E.   S  S  S E E S S    Q    E.    S   S  S E E S S
|----------------------------|------------------------------|
|----------------------------|------------------------------|
|-4-----4----4--x--7-7-7-x-x-|------------------------------|
|-4-----4----4--x--7-7-7-x-x-|--7----7-----7---x--5-5-5-x-x-|
|-2-----2----2--x--5-5-5-x-x-|--7----7-----7---x--5-5-5-x-x-|
|----------------------------|--5----5-----5---x--3-3-3-x-x-|
|
| Gtr I
| E  E  E  E   +E    E E E     +E  E E   E    +H
|----------------------------|------------------------------|
|----------9---(9)-----9-9---|-(9)---9--10---(10)-----------|
|------11------------9-------|-----9------------------------|
|---11-----------------------|------------------------------|
|-9--------------------------|------------------------------|
|----------------------------|------------------------------|


  F#5              A5           E5                  D5
                                        Gtr III
  Q   E.    S   S  S E  E S S    Q    E  S S   S  S E Q
|-----------------------------|---------------------------|
|-----------------------------|---------------------------|
|-4---4-----4---x--7-7--7-x-x-|---------------------------|
|-4---4-----4---x--7-7--7-x-x-|--7----7--x-x---x--x-5-5\--|
|-2---2-----2---x--5-5--5-x-x-|--7----7--x-x---x--x-5-5\--|
|-----------------------------|--5----5--x-x---x--x-3-3\--|
|
| E E E   E    +E    E  E E     +E  E E  E    +H
|-----------------------------|---------------------------|
|-9---9--10---(10)-----10-9---|-(9)---9-------------------|
|---9----------------9--------|-----9---11---(11)---------|
|-----------------------------|---------------------------|
|-----------------------------|---------------------------|
|-----------------------------|---------------------------|


   Chorus
    F#5         D5      B5        E5
    Q  E. S S S E E E   Q  E. S S S E E S S
||--------------------|---------------------|
||o-------------------|---------------------|
||--4--4--4-x-x-------|---------------------|
||--4--4--4-x-x-5-5-5-|-2--2--2-x-7-7-7-7-7-|
||o-2--2--2-x-x-5-5-5-|-2--2--2-x-7-7-7-7-7-|
||--------------3-3-3-|-0--0--0-x-5-5-5-5-5-|


  F#5         D5      B5        E5
  Q  E. S S S E E E   Q  E. S S S E E S S
|-------------------|-----------------------||
|-------------------|----------------------o||
|-4--4--4-x-x-------|-----------------------||
|-4--4--4-x-x-5-5-5-|-2--2--2-x-7-7-7-7-7---||
|-2--2--2-x-x-5-5-5-|-2--2--2-x-7-7-7-7-7--o||
|-------------3-3-3-|-0--0--0-x-5-5-5-5-5---||


 Bridge
  Gtr III
   E   E  E  E  E  E  E   E   E  E E E E E E  E    E   E  E  E  E  E  E   E
|---------------------------|-------------------|---------------------------|
|---------------------------|-------------------|---------------------------|
|--------12-------12--------|------9-----9------|--------12-------12--------|
|-----12-------12--------12-|----9-----9------9-|-----12-------12--------12-|
|-10--------10-------10-----|-7------7-----7----|-10--------10-------10-----|
|---------------------------|-------------------|---------------------------|
|
| Gtr IV
|  H.                 Q       H.           Q       H.                 Q
|---------------------------|-------------------|---------------------------|
|---------------------------|-------------------|---------------------------|
|---------------------------|-------------------|---------------------------|
|---------------------------|-------------------|---------------------------|
|--5------------------5\----|-2------------2/---|--5------------------5\----|
|---------------------------|-------------------|---------------------------|


  E  E E E E E E  E    E   E  E  E  E  E  E   E
|-------------------|-----------------------------|
|-------------------|-----------------------------|
|------9-----9------|--------12-------12----------|
|----9-----9------9-|-----12-------12--------12---|
|-7------7-----7----|-10--------10-------10-------|
|-------------------|-----------------------------|
|
| H.           Q       H.                 Q
|-------------------|-----------------------------|
|-------------------|-----------------------------|
|-------------------|-----------------------------|
|-------------------|-----------------------------|
|-2------------2/---|--5------------------5\------|
|-------------------|-----------------------------|


  E  E E E E E E  E    E   E  E  E  E  E  E   E   W
|-------------------|---------------------------|------|
|-------------------|---------------------------|------|
|------9-----9------|--------12-------12--------|------|
|----9-----9------9-|-----12-------12--------12-|------|
|-7------7-----7----|-10--------10-------10-----|------|
|-------------------|---------------------------|------|
|
| H.           Q       H.                 Q       W
|-------------------|---------------------------|------|
|-------------------|---------------------------|------|
|-------------------|---------------------------|------|
|-------------------|---------------------------|------|
|-2------------2/---|--5------------------5\----|-2----|
|-------------------|---------------------------|------|


   Out-Chorus
    F#5               D5         B5              E5
    Gtr III
    Q     E.    S S S  E  E  E   Q     E.    S S S  E  E  S S  3x
||-----------------------------|-------------------------------||
||o----------------------------|------------------------------o||
||--4-----4-----4-x-x----------|-------------------------------||
||--4-----4-----4-x-x--5--5--5-|-2-----2-----2-x-7--7--7--7-7--||
||o-2-----2-----2-x-x--5--5--5-|-2-----2-----2-x-7--7--7--7-7-o||
||---------------------3--3--3-|-0-----0-----0-x-5--5--5--5-5--||
|
|   Gtr I
|   E  E  E   E   E    E  E  E   E  E  E   E   E    E  E  E    3x
||--9----10-------9------10----|-9----10-------9------10-------||
||o---10-----10-------10----10-|---10-----10-------10----10---o||
||-----------------------------|-------------------------------||
||-----------------------------|-------------------------------||
||o----------------------------|------------------------------o||
||-----------------------------|-------------------------------||


  F#5               D5         B5               E5
  Q     E.    S S S  E  E  E   Q     E.    S  S S  E  E  S S
|----------------------------|-------------------------------|
|----------------------------|-------------------------------|
|-4-----4-----4-x-x----------|-------------------------------|
|-4-----4-----4-x-x--5--5--5-|-2-----2-----2--x-7--7--7--7-7-|
|-2-----2-----2-x-x--5--5--5-|-2-----2-----2--x-7--7--7--7-7-|
|--------------------3--3--3-|-0-----0-----0--x-5--5--5--5-5-|
|
| E  E  E   E   E    E  E  E   E  E  E   E    E    E  E  E
|-9----10-------9------10----|-9----10-------12------10------|
|---10-----10-------10----10-|---10-----10--------10----10---|
|----------------------------|-------------------------------|
|----------------------------|-------------------------------|
|----------------------------|-------------------------------|
|----------------------------|-------------------------------|


  F#5               D5         B5              E5
  Q     E.    S S S  E  E  E   Q     E.    S S S  E  E  S S
|----------------------------|-------------------------------|
|----------------------------|-------------------------------|
|-4-----4-----4-x-x----------|-------------------------------|
|-4-----4-----4-x-x--5--5--5-|-2-----2-----2-x-7--7--7--7-7--|
|-2-----2-----2-x-x--5--5--5-|-2-----2-----2-x-7--7--7--7-7--|
|--------------------3--3--3-|-0-----0-----0-x-5--5--5--5-5--|
|
| E  E  E   E   E    E  E  E   E  E  E   E   E    E  E  E
|-9----10-------9------10----|-9----10-------9------10-------|
|---10-----10-------10----10-|---10-----10-------10----10----|
|----------------------------|-------------------------------|
|----------------------------|-------------------------------|
|----------------------------|-------------------------------|
|----------------------------|-------------------------------|


  F#5               D5         B5               E5
  Q     E.    S S S  E  E  E   Q     E.    S  S S  E  E  S S
|----------------------------|-------------------------------|
|----------------------------|-------------------------------|
|-4-----4-----4-x-x----------|-------------------------------|
|-4-----4-----4-x-x--5--5--5-|-2-----2-----2--x-7--7--7--7-7-|
|-2-----2-----2-x-x--5--5--5-|-2-----2-----2--x-7--7--7--7-7-|
|--------------------3--3--3-|-0-----0-----0--x-5--5--5--5-5-|
|
| E  E  E   E   E    E  E  E   E  E  E   E    E    E  E  E
|-9----10-------9------10----|-9----10-------12------10------|
|---10-----10-------10----10-|---10-----10--------10----10---|
|----------------------------|-------------------------------|
|----------------------------|-------------------------------|
|----------------------------|-------------------------------|
|----------------------------|-------------------------------|


    F#5                D5         B5               E5
    Q     E.    S  S S  E  E  E   Q     E.    S  S S  E  E  S S
||------------------------------|--------------------------------||
||o-----------------------------|-------------------------------o||
||--4-----4-----4--x-x----------|--------------------------------||
||--4-----4-----4--x-x--5--5--5-|-2-----2-----2--x-7--7--7--7-7--||
||o-2-----2-----2--x-x--5--5--5-|-2-----2-----2--x-7--7--7--7-7-o||
||----------------------3--3--3-|-0-----0-----0--x-5--5--5--5-5--||
|
|   E  E  E   E    E    E  E  E   E  E  E   E    E    E  E  E
||--9----10-------12------10----|-9----10-------12------10-------||
||o---10-----10--------10----10-|---10-----10--------10----10---o||
||------------------------------|--------------------------------||
||------------------------------|--------------------------------||
||o-----------------------------|-------------------------------o||
||------------------------------|--------------------------------||


    F#5               D5         B5               E5
    Q     E.    S S S  E  E  E   Q     E.    S  S S  E  E  S S
||-----------------------------|--------------------------------||
||o----------------------------|-------------------------------o||
||--4-----4-----4-x-x----------|--------------------------------||
||--4-----4-----4-x-x--5--5--5-|-2-----2-----2--x-7--7--7--7-7--||
||o-2-----2-----2-x-x--5--5--5-|-2-----2-----2--x-7--7--7--7-7-o||
||---------------------3--3--3-|-0-----0-----0--x-5--5--5--5-5--||
|
|   E  E  E   E   E    E  E  E   E  E  E   E    E    E  E  E
||--9----10-------9------10----|-9----10-------12------10-------||
||o---10-----10-------10----10-|---10-----10--------10----10---o||
||-----------------------------|--------------------------------||
||-----------------------------|--------------------------------||
||o----------------------------|-------------------------------o||
||-----------------------------|--------------------------------||


  F#5                         D5                  B5                          E5
   Q        E.        S  S  S  E     E     E       Q           E.        S  S  S  E     
    S  S
|---------------------------------------------|-------------------------------------------------|
|---------------------------------------------|-------------------------------------------------|
|4--------4---------4--x--x-------------------|-------------------------------------------------|
|4--------4---------4--x--x--5-----5-----5----|--2-----------2---------2--x--7--7-----7-----7--7|
|2--------2---------2--x--x--5-----5-----5----|--2-----------2---------2--x--7--7-----7-----7--7|
|----------------------------3-----3-----3----|--0-----------0---------0--x--5--5-----5-----5--5|
|
| Gtr I
|  E  S  S  S   S  S  S  S  S  S  S  S  S  S  S    S  S  S  S  S   S  S  S  S  S  S  S  S S  S  S
|12-12-12-12--12-12-12-12-12-12-12-12-12-12-12-|-12-12-12-12-12--12-12-12-12-12-12-12-12-12-12-12|
|-----------------------------------------------|------------------------------------------------|
|-----------------------------------------------|------------------------------------------------|
|-----------------------------------------------|------------------------------------------------|
|-----------------------------------------------|------------------------------------------------|
|-----------------------------------------------|------------------------------------------------|


  F#5                            D5                  B5                          E5
   Q           E.        S  S  S  E     E     E       Q           E.        S  S  S  E   
 E     S  S
|------------------------------------------------|-------------------------------------------------|
|------------------------------------------------|-------------------------------------------------|
|4-----------4---------4--x--x-------------------|-------------------------------------------------|
|4-----------4---------4--x--x--5-----5-----5----|--2-----------2---------2--x--7--7-----7-----7--7|
|2-----------2---------2--x--x--5-----5-----5----|--2-----------2---------2--x--7--7-----7-----7--7|
|-------------------------------3-----3-----3----|--0-----------0---------0--x--5--5-----5-----5--5|
|
|  S  S  S  S  S   S  S  S  S  S  S  S  S  S  S  S    S  S  S  S  S   S  S  S  S  S  S  S S  S  S S
|12-12-12-12-12--12-12-12-12-12-12-12-12-12-12-12-|12-12-12-12-12-12-12-12-12-12-12-12-12-12-12-12|
|-------------------------------------------------|-----------------------------------------------|
|-------------------------------------------------|-----------------------------------------------|
|-------------------------------------------------|-----------------------------------------------|
|-------------------------------------------------|-----------------------------------------------|
|-------------------------------------------------|-----------------------------------------------|


  Gtr I
   W           W            W
|--9--------|------------|--------*|
|-10--------|------------|--------*|
|-----------|------------|--------*|
|-----------|------------|--------*|
|-----------|------------|--------*|
|-----------|------------|--------*|
|
| Gtr III
|  W          +W           +W
|-----------|------------|--------*|
|-----------|------------|--------*|
|--4--------|-(4)--------|-(4)----*|
|--4--------|-(4)--------|-(4)----*|
|--2--------|-(2)--------|-(2)----*|
|-----------|------------|--------*|


Duration Legend
---------------
W - whole; H - half; Q - quarter; E - 8th; S - 16th; T - 32nd; X - 64th; a - acciaccatura
+ - note tied to previous; . - note dotted; .. - note double dotted
Uncapitalized letters represent notes that are staccato (1/2 duration)
Irregular groupings are notated above the duration line
Duration letters will always appear directly above the note/fret number it represents the
duration for.  Duration letters with no fret number below them represent rests.  Multi-
bar rests are notated in the form Wxn, where n is the number of bars to rest for.  Low
melody durations appear below the staff

Tablature Legend
----------------
 h   - hammer-on
 p   - pull-off
 b   - bend
 pb  - pre-bend
 r   - bend release (if no number after the r, then release immediately)
 /\  - slide into or out of (from/to "nowhere")
 s   - legato slide
 S   - shift slide
  - natural harmonic
[n]  - artificial harmonic
n(n) - tapped harmonic
 ~   - vibrato
 tr  - trill
 T   - tap
 TP  - trem. picking
 PM  - palm muting
\n/  - tremolo bar dip; n = amount to dip
 \n  - tremolo bar down
 n/  - tremolo bar up
/n\  - tremolo bar inverted dip
 =   - hold bend; also acts as connecting device for hammers/pulls
 <>  - volume swell (louder/softer)
 x   - on rhythm slash represents muted slash
 o   - on rhythm slash represents single note slash

Misc Legend
-----------
 |  - bar
||  - double bar
||o - repeat start
o|| - repeat end
*|  - double bar (ending)
 :  - bar (freetime)
 $  - Segno
 &  - Coda
Tempo markers -  = BPM(8/16=s8/s16), where s8 = swing 8ths, s16 = swing 16ths


***************************************************************************************
* Generated using Power Tab Editor by Brad Larsen - http://powertab.guitarnetwork.org *
***************************************************************************************
Tap to rate this tab
# A B C D E F G H I J K L M N O P Q R S T U V W X Y Z