Song name
# A B C D E F G H I J K L M N O P Q R S T U V W X Y Z

Seether - 69 Tea tab

Help us improve GuitareTab! Take a short survey!
-------------------------------------------------------------------------------
			     Seether – 69 tea
-------------------------------------------------------------------------------
Tabbed by:Jeremy Kowalczyk
Email: RudeAwakening111@aol.com

Tuning:EADGBE
This is song is 100% correct,just figure out the rythem of the song.

Intro/Verse(light distortion)
E|---------------------------------------------------------------------------|
B|---------------------------------------------------------------------------|
G|----------------------77h8p7-----------------------------------------------|
D|------7--------------------------------------------------------------------|
A|---5--5--7—8Let ring-------------------------------------------------------|
E|---3-----5—6Let ring-------------------------------------------------------|
Chorus (distortion)
E----------------------------------------------------------------------------|
B|---------------------------------------------------------------------------|
G|---------------------------------------------------------------------------|
D|--9--------5---------------------------------------------------------------|
A|--7--9--7--3---------------------------------------------------------------|
E|-----7--5--3---------------------------------------------------------------|
Chorus Continued
E|---------------------------------------------------------------------------|
B|---------------------------------------------------------------------------|
G|---------------------------------------------------------------------------|
D|--9--------5---x-x-x-------------------------------------------------------|
A|--7--9--7--3---x-x-x-------------------------------------------------------|
E|-----7--5------x-x-x-------------------------------------------------------|
Bridge
E|---------------------------------------------------------------------------|
B|---------------------------------------------------------------------------|
G|---------------------------------------------------------------------------|
D|--5------------------------------------------------------------------------|
A|--3--6--9--3---------------------------------------------------------------|
E|-----4--7--1---------------------------------------------------------------|

Solo (play 3 times)
E|---------------------------------------------------------------------------|
B|---15-----15-----15-----17----18----17-------------------------------------|
G|-----14-----14-----14-----14----14----14-----------------------------------|
D|---------------------------------------------------------------------------|
A|---------------------------------------------------------------------------|
E|---------------------------------------------------------------------------|

On the 4th time of the solo go…….
E|---------------------------------------------------------------------------|
B|---15-----15----15-----17----18----17--------------------------------------|
G|-----14-----14----14-----14----14-----14-----------------------------------|
D|--------------------------------------------14~----------------------------|
A|---------------------------------------------------------------------------|
E|---------------------------------------------------------------------------|

Chorus
Chorus/bridge

| /  slide up
| \  slide down
| h  hammer-on
| p  pull-off
| ~  vibrato
| +  harmonic
| x  Mute note

There yah go,I know its right
Related for 69 Tea tab