Guitaretab - guitar tabs
Song name
# A B C D E F G H I J K L M N O P Q R S T U V W X Y Z

Seether - Got It Made tab

Song - Got It Made
Artist - Seether
Standard Tuning

Intro/Verse

|-------------------------------------|
|-------------------------------------|
|-------------------------------------|
|-------------------------------------|
|------0-----0-----0-----0------0-----|
|-2-2---2-2---2-2---2-2---2-2---0-----|

|---------------------------------------|
|---------------------------------------|
|---------------------------------------|
|---------------------------------------|
|-----2-----2-----2-----2----0-0h2-0----|
|-0-0---0-0---0-0---0-0---0-------------|

Pre-Chorus
|-------0-------2--|
|------------------|
|---4--------4-----|
|-2--------2-------|
|------------------|
|------------------|

Chorus
|------------------------------------------|
|------------------------------------------|
|------------------------------------------|
|-4--4-4--4-4-4-4-4-4--2--2-2--2-2-2-2-2-2-|
|-4--4-4--4-4-4-4-4-4--2--2-2--2-2-2-2-2-2-|
|-2--2-2--2-2-2-2-2-2--0--0-0--0-0-0-0-0-0-|
[ Tab from: http://www.guitaretab.com/s/seether/132055.html ]
|--------------------------------------------------|
|--------------------------------------------------|
|--------------------------------------------------|
|-4--4-4--4-4-4-4-4-4--2--2-2--2-2-2-2-2-2-----0h2-|
|-4--4-4--4-4-4-4-4-4--2--2-2--2-2-2-2-2-2-0h2-----|
|-2--2-2--2-2-2-2-2-2--0--0-0--0-0-0-0-0-0---------|

Bridge
|-------------------------------------------|
|-------------------------------------------|
|--------3b---------------------------------|   x4
|-------------------------------------------|
|-6-6-6------2--2-2-2-2--4--4-4-4-4-4-4-----|
|-4-4-4------0--0-0-0-0--2--2-2-2-2-2-2-----|

Solo (listen to song for timing)
|------------------------------------------------------------|
|------------------------------------------------------------|
|------------------------------------------------------------|
|-1-2-1-2/4-----4-2-2/6-----6-4-4/7-----7-----6---6-2---2/4--|
|------------------------------------------------------------|
|------------------------------------------------------------|
Related for Got It Made tab
Got It Made chords by Seether