Song name
# A B C D E F G H I J K L M N O P Q R S T U V W X Y Z

Seether - Never Leave tab

                                Never Leave

     Repeat Intro 2x
                        ~~~~~~~
     E-----------0------------------------------------------------------|
     B------1------1---3--------3/--------------------------------------|
     G----2---2------2------------------------10------------------------|
     D--0---------------------------------8------8----8^10---10---------|
     A----------------------------------8----------------8----8---------|
     D--------------------------------8-----8------8--------------------|

     Gtr. 2

     E-----10----10---8---8---5---5---3---3---3---3---3----1-----------|
     B--10----10----8---8---5---5---3---3---3---3---3---3--1-----------|
     G-----------------------------------------------------------------|
     D-----------------------------------------------------------------|
     A-----------------------------------------------------------------|
     D-----------------------------------------------------------------|

     Pre-chorus
        Shes the one that keeps me all excited...
     E-----17----------15----------12------------6-6-5/6----------------|
     B--15----1513-13----1310-10----108-----6-6-6-5/6---6/86------------|
     G-----------------------------------------3-----------5/75---------|
     D------------------------------------------------------------------|
     A------------------------------------------------------------------|
     D------------------------------------------------------------------|

                                               ~~~~~~      ~~~~~~
     E-----17----------15----------12-----------------------------------|
     B--15----1513-13----1310-10----108----6-------6^8-6----------------|
     G------------------------------------------------------------------|
     D------------------------------------------------------------------|
     A------------------------------------------------------------------|
     D------------------------------------------------------------------|

     Chorus
                                                      figure out rythym
     E------------------------------------------------------------------|
     B------------------------------------------------------------------|
     G-7----7--7--7/12--12--12--1210---10--10--109/109---10-------------|
     D------------------------------------------------------8-----------|
     A-5----5--5--5/10--10--10--10 8----8---8---87/ 87---8--------------|
     D------------------------------------------------------8-----------|

                                                      figure out rythym
     E------------------------------------------------------------------|
     B------------------------------------------------------------------|
     G-7----7--7--7/12--12--12--1210---10--10--10/14--14---10-----------|
     D------------------------------------------------------8-----------|
     A-5----5--5--5/10--10--10--10 8----8---8---8/12--12---8------------|
     D------------------------------------------------------8-----------|


          Its only a symbol....     figure out rythym
     E-----------------------------------------------------------------|
     B---6-----4-------------------------------------------------------|
     G---5-----3-------------------------------------------------------|
     D---3-----1-------------------------------------------------------|
     A---3-----1-------------------------------------------------------|
     D---3-----1-------------------------------------------------------|

     Bridge
                                              figure out rythym
     E------------------------------------------------------------------|
     B----------------------------------------5-------------------------|
     G----------------------------------------5-------------------------|
     D-12-12-12-12-1210-10-109-9-9-9/109---5----------------------------|
     A----------------------------------------3-------------------------|
     D-10-10-10-10-108--8---87-7-7-7/ 87--------------------------------|

     Interlude

     E------0-----0-----0-----0------------------17------17-------------|
     B--1/3---3/5---5/6---6/8---8/10--10/15--15------15------15--15-----|
     G------------------------------------------------------------------|
     D------------------------------------------------------------------|
     A------------------------------------------------------------------|
     D------------------------------------------------------------------|

     E------0-----0-----0-----0---------------17-----------------------|
     B--1/3---3/5---5/6---6/8---8/10--10/15---15-----------------------|
     G-----------------------------------------------------------------|
     D-----------------------------------------------------------------|
     A-----------------------------------------------------------------|
     D-----------------------------------------------------------------|


      this part is played with the part above
     E-----10----10---8---8---5---5---3---3----3-----------------------|
     B--10----10----8---8---5---5---3---3------3-----------------------|
     G-----------------------------------------------------------------|
     D-----------------------------------------------------------------|
     A-----------------------------------------------------------------|
     D-----------------------------------------------------------------|

     played with wah pedal at the end
     E------0-----0-----0-----0------------------17------17-------------|
     B--1/3---3/5---5/6---6/8---8/10--10/15--15------15------15--15-----|
     G------------------------------------------------------------------|
     D------------------------------------------------------------------|
     A------------------------------------------------------------------|
     D------------------------------------------------------------------|

     E-----------------------------------------------------------------|
     B-----------------------------------------------------------------|
     G-----------------------------------------------------------------|
     D-----------------------------------------------------------------|
     A-----------------------------------------------------------------|
     D-----------------------------------------------------------------|
Tap to rate this tab
 
# A B C D E F G H I J K L M N O P Q R S T U V W X Y Z