Song name
# A B C D E F G H I J K L M N O P Q R S T U V W X Y Z

Seether - Let Me Go tab

Song: Let Me Go
Artist: Seether
Album: Remedy single
Here is my tab for this song, I don't have the solo though, I think it is right, at least the just of it is.

Drop D down 1/2 step D# A# D# G# B# E#
*=Harmonics

Intro
e#|----------------------------------------------------------|
b#|----------------------------------------------------------|
g#|--9--9--9--9--9---7--7--7--12--12-------------------------|
d#|-----------------------------------0--1--1--1--1--1--1----| (X2)
a#|--7--7--7--7--7---5--5--5--10--10--0--1--1--1--1--1--1----|
d#|-----------------------------------0--1--1--1--1--1--1----|


post intro
|-------------------------------------|
|-------------------------------------|
|-------------------------------------|
|--2--2--2--5-------3--3--3--5--------|
|--2--2--2--5--(X4)-3--3--3--5---(X4)-|
|--2--2--2--5-------3--3--3--5--------|

|-------------------------------------------------------------------------|
|-------------------------------------------------------------------------|
|--9--9--9--12-------9--9--9--14---10--10--10--12-------10--10--12--15--15|
|---------------(X3)-------------------------------(X2)-------------------|
|--7--7--7--10-------7--7--7--12----8---8---8--10--------8---8--10--13--13|
|-------------------------------------------------------------------------|


Verse (Your Insecurity.....)
|----------------------------------------------------------|
|----------------------------------------------------------|
|--9--9--9--9--9---7--7--7---5--5---3--3--3--3--3----------|
|-----------------------------------1--1--1--1--1----------| (X2)
|--7--7--7--7--7---5--5--5---3--3---1--1--1--1--1----------|
|-----------------------------------1--1--1--1--1----------|


Chrous (Another Voice Rejection...)
|-----------------------------------------------------------|
|-----------------------------------------------------------|
|-----------------------------------------------------------|
|--2--2--2--5-------2--2--2--7-/--3--3--3--5-------3--5--8--|
|--2--2--2--5--(X3)-2--2--2--7-/--3--3--3--5--(X2)-3--5--8--|
|--2--2--2--5-------2--2--2--7-/--3--3--3--5-------3--5--8--|

|-------------------------------------------------------------------------|
|-------------------------------------------------------------------------|
|--9--9--9--12-------9--9--9--14---10--10--10--12-------10--10--12--15--15|
|---------------(X3)-------------------------------(X2)-------------------|
|--7--7--7--10-------7--7--7--12----8---8---8--10--------8---8--10--13--13|
|-------------------------------------------------------------------------|


Verse (Its all too much for me.....)
|----------------------------------------------------------|
|----------------------------------------------------------|
|--9--9--9--9--9---7--7--7---5--5---3--3--3--3--3----------|
|-----------------------------------1--1--1--1--1----------| (X3)
|--7--7--7--7--7---5--5--5---3--3---1--1--1--1--1----------|
|-----------------------------------1--1--1--1--1----------|


Chrous (Another Voice Rejection...)
|-----------------------------------------------------------|
|-----------------------------------------------------------|
|-----------------------------------------------------------|
|--2--2--2--5-------2--2--2--7-/--3--3--3--5-------3--5--8--|
|--2--2--2--5--(X3)-2--2--2--7-/--3--3--3--5--(X2)-3--5--8--|
|--2--2--2--5-------2--2--2--7-/--3--3--3--5-------3--5--8--|

|-------------------------------------------------------------------------|
|-------------------------------------------------------------------------|
|--9--9--9--12-------9--9--9--14---10--10--10--12-------10--10--12--15--15|
|---------------(X3)-------------------------------(X2)-------------------|
|--7--7--7--10-------7--7--7--12----8---8---8--10--------8---8--10--13--13|
|-------------------------------------------------------------------------|


Bridge
|------------------------------------------------------------------|
|------------------------------------------------------------------|
|------------------------------------------------------------------|
|--2--2--0--2----2--2--0--2----2--2--0--2----2--2--0--5--0--3--0---|
|--2--2--0--2----2--2--0--2----2--2--0--2----2--2--0--5--0--3--0---|
|--2--2--0--2----2--2--0--2----2--2--0--2----2--2--0--5--0--3--0---|


Post Bridge/Solo
|---------------------------|
|---------------------------|
|---------------------------|
|--2--2--2--5-------0--2----|
|--2--2--2--5--(X3)-0--2----|
|--2--2--2--5-------0--2----|


Chorus (Throw it at me...)
|---------------------|
|---------------------|
|---------------------|
|--3--3--3--5---------|
|--3--3--3--5--(X4)---|
|--3--3--3--5---------|
(Another Selfish reason...)
|--------------------------------------|
|--------------------------------------|
|--------------------------------------|
|--2--2--2--5-------3--3--3--5---------|
|--2--2--2--5--(X4)-3--3--3--5--(X2)---|
|--2--2--2--5-------3--3--3--5---------|
(Another Voice Rejection...) (X2)
|-----------------------------------------------------------------------|
|-----------------------------------------------------------------------|
|--9--9--9--12-------9--9--9--14---10--10--10--12-----10--10--12--15--15|
|---------------(X3)------------------------------(X2)------------------|
|--7--7--7--10-------7--7--7--12----8---8---8--10------8---8--10--13--13|
|-----------------------------------------------------------------------|


Outro (Go!..)
|------------------------------------------------------------------|
|------------------------------------------------------------------|
|------------------------------------------------------------------|
|--2--2--0--2----2--2--0--2----2--2--0--2----2--2--0--5--0--3--0---|
|--2--2--0--2----2--2--0--2----2--2--0--2----2--2--0--5--0--3--0---|
|--2--2--0--2----2--2--0--2----2--2--0--2----2--2--0--5--0--3--0---|
(Let me Go!....)                                               
|--------------------------------------------------------------------------|
|--------------------------------------------------------------------------|
|-------------*5------------*5------------*5-------------------------------|
|--2--2--0--2----2--2--0--2----2--2--0--2----2--2--0--5--0--3----pm-pm-pm--|
|--2--2--0--2----2--2--0--2----2--2--0--2----2--2--0--5--0--3--0--2--2-0--2|
|--2--2--0--2----2--2--0--2----2--2--0--2----2--2--0--5--0--3--0--2--2-0--2|
                                      (p.m last 3 strums before final one)


even if this isn't 100% I hope it helps you out a bit. Thanks
Jay





Tap to rate this tab
 
# A B C D E F G H I J K L M N O P Q R S T U V W X Y Z