Song name
# A B C D E F G H I J K L M N O P Q R S T U V W X Y Z

Seether - Gift Acoustic tab

Tuning: Drop D one step down

   Intro / Verse
 |-------------------------------------------------------------------------|
 |-------------------------------------------------------------------------|
 |------------5------------------4-------------------2~-----2-0-----0------|
 |------7--------7---------5--------5----------3----------------3-----3----|
 |---7-----7--------7---5-----5--------5----3-----3---------------3--------|
 |-------------------------------------------------------------------------|

     Hold me now  i   need to feel                complete....

 |------------------------------------------------------------------0------|
 |------------------------------------------------------------------0------|
 |------------5------------------4-------------------2~-----2-0------------|
 |------7--------7---------5--------5----------3----------------3----------|
 |---7-----7--------7---5-----5--------5----3-----3------------------------|
 |-------------------------------------------------------------------------|


   Pre chorus (Well you are strumming all the time, but u get the rythm...)

 |--------------------------------------------------|
 |--------------------------------------------------|
 |--7-7-7-7-------------9-9-9-9----------5-5-5-5----|
 |--5-5-5-5-------------7-7-7-7----------3-3-3-3----|
 |--5-5-5-5-------------7-7-7-7----------3-3-3-3----|
 |--5-5-5-5-------------7-7-7-7----------3-3-3-3----|

       and im out of  Reason to believe in me


   Chorus (same thing here with the rythm)

 |--0-0-0-0-----------------------------------------|
 |--1-1-1-1-----------------------------------------|
 |--0-0-0-0---------7-7-7-7-----------5-5-5-5-------|
 |--2-2-2-2---------5-5-5-5-----------3-3-3-3-------|
 |--3-3-3-3---------5-5-5-5-----------3-3-3-3-------|
 |--x-x-x-x---------5-5-5-5-----------3-3-3-3-------|

       And im so afraid of the gift you give me

 |--------------------------------------------------|\
 |--------------------------------------------------| \
 |--9-9-9-9---------7-7-7-7-------5-5-5-5-----------|  \ This riff is also
 |--7-7-7-7---------5-5-5-5-------3-3-3-3-----------|  / used at the end
 |--7-7-7-7---------5-5-5-5-------3-3-3-3-----------| / (Now i'm ashamed me) 
 |--7-7-7-7---------5-5-5-5-------3-3-3-3-----------|/ 
   
       I dont belong here and im not well

 |--0-0-0-0-----------------------------------------|
 |--1-1-1-1-----------------------------------------|
 |--0-0-0-0---------7-7-7-7-----------5-5-5-5-------|
 |--2-2-2-2---------5-5-5-5-----------3-3-3-3-------|
 |--3-3-3-3---------5-5-5-5-----------3-3-3-3-------|
 |--x-x-x-x---------5-5-5-5-----------3-3-3-3-------|

       And im so ashamed of the lie i'm living

 |--------------------------------------------------|
 |--------------------------------------------------|
 |--7-7-7-7---------9-9-9-9-----------5-5-5-5-------|
 |--5-5-5-5---------7-7-7-7-----------3-3-3-3-------|
 |--5-5-5-5---------7-7-7-7-----------3-3-3-3-------|
 |--5-5-5-5---------7-7-7-7-----------3-3-3-3-------|
   
       Right on the wrong side of it all


 -------

 This is 100% correct, if you are unsure of anything, please check this video  
 http://youtube.com/watch?v=XIPWoIbizmk&mode=user&search=

 Btw. this is the a version without Pat, thats why i didn't write his parts.

 Peace out!
Tap to rate this tab
# A B C D E F G H I J K L M N O P Q R S T U V W X Y Z