Song name
# A B C D E F G H I J K L M N O P Q R S T U V W X Y Z

Seether - Fallen tab

			                                          FALLEN - SEETHER

Tabbed by:Travis
Email:tewells27@yahoo.com

Tuning: C,G,C,F,A,D( Drop D Down one whole step)


   Bass Intro
e|-----------------------------------------------------------------------------|
B|-----------------------------------------------------------------------------|
G|-----------------------------------------------------------------------------|
D|---------------------------------------  Repeat------------------------------|
A|-----3---------3-5--------------3--------------------------------------------|
E|--0------5--0--------0--3-5--0------5----------------------------------------|


   Guitar/Intro
e|----------------------------------------------------------------------------|
B|----------------------------------------------------------------------------|
G|----------------------------------------------------------------------------|
D|----------------------------------------------------------------------------|
A|--0--3--5--0--3--5---0-3--5--0---3--5---0--3--5---0-----3--5----------------|
E|--0--3--5--0---------0-3--5--0------5---0--3--5---0-------------------------|

e|----------------------------------------------------------------------------|
B|----------------------------------------------------------------------------|
G|----------------------------------------------------------------------------|
D|---------------------3h5----------------------------------------------------|
A|--0--3---5--0---3h5---------------------------------------------------------|
E|--0--3---5--0---------------------------------------------------------------|


   Verse Riff
e|----------------------------------------------------------------------------|
B|----------------------------------------------------------------------------|
G|--------12h13-------------------10------------------------------------------|
D|--------0-----------------------0-------------------------------------------|
A|--0--0----------------10----------------------------------------------------|
E|--0--0------------0---10---0------------------------------------------------|


   Pre-Chorus Chords
      G5                Bb5
e|----------------------------------------------------------------------------|
B|----------------------------------------------------------------------------|
G|--7-------10----------------------------------------------------------------|
D|--5--X7---8---X8------------------------------------------------------------|
A|--5-------8-----------------------------------------------------------------|
E|--5-------8-----------------------------------------------------------------|

  Chorus:Same as Intro Above


   (Guitar Solo Lead)..Not going to put under Riff of guitar and X means how many times 
hit the     notes.See no need in showing it 5 or 14 times.

e|--0--1-----3-----------5-------7------0-1----3------------5-------7---------|
B|-----4b----6b-x--x--x--8b---x--10b------4b---6b--x--x--x--8b---x--10b-------|
G|----------------------------------------------------------------------------|
D|----------------------------------------------------------------------------|
A|----------------------------------------------------------------------------|
E|----------------------------------------------------------------------------|

e|--10-----12----------- 13-------15------17------20-----22-------------------|
B|--8--X5--10--X5--then--11--X5---13-X5---15-X5---18-X5--20-X14---------------|
G|----------------------------------------------------------------------------|
D|----------------------------------------------------------------------------|
A|----------------------------------------------------------------------------|
E|----------------------------------------------------------------------------|

   Guitar Solo Rhy Guitar Part
e|-----------------------------------------------------------------------------|
B|-----------------------------------------------------------------------------|
G|-----------------------------------------------------------------------------|
D|----------12-----------15-----------12------------12h11h10-------------------|
A|--0-0--0--12----0-0-0--15---0-0--0--12---0--0--0--12h11h10-------------------|
E|--0-0--0--12----0-0-0--15---0-0--0-  12 ---0--0--0--12h11h10-----------------|

Then Pre-Chorus
Outro Same as Intro
End On D5 open Chord


| /  slide up
| \  slide down
| h  hammer-on
| p  pull-off
| ~  vibrato
| +  harmonic
| x  Mute note
Tap to rate this tab
# A B C D E F G H I J K L M N O P Q R S T U V W X Y Z