Song name
# A B C D E F G H I J K L M N O P Q R S T U V W X Y Z

Seether - Rehab tab

Help us improve GuitareTab! Take a short survey!
-------------------------------------------------------------------------------
			     Rehab - Seether
----------------------------------------------------------------------------
Tabbed by:Travis
Email:tewells27@yahoo.com

Tuning:C,G,C,F,A,D

   Intro/Verse....Picked out In D...It changes but you get the idea

   "They try to make me go to rehab"................................
e|----------------------------------------------------------------------------|
B|----------------------------------------------------------------------------|
G|-----------7-----------------7----------------------------------------------|
D|-----7--------5--------7--------5------7---7--------------------------------|
A|--5----5---------5--5-----5--------5-5---5----------------------------------|
E|----------------------------------------------------------------------------|

   I Aint Got The Time
e|----------------------------------------------------------------------------|
B|---10------8----------------------------------------------------------------|
G|---9-------7----------------------------------------------------------------|
D|---7-------5--------then --------x-x-x-1------------------------------------|
A|---7-------5--------------------x-x-x-1-------------------------------------|
E|---7-------5--------------------x-x-x-1-------------------------------------|

   Id rather be at home with Ray
   Chorus Chords
e|----------------------------------------------------------------------------|
B|----------------------------------------------------------------------------|
G|--------4-------------------------------------------------------------------|
D|---4----4----5----8---------------------------------------------------------|
A|---4----2----5----8---------------------------------------------------------|
E|---4---------5----8---------------------------------------------------------|

   I didnt get a lot in class
   Bridge Chords
e|----------------------------------------------------------------------------|
B|--10-----8------------------------------------------------------------------|
G|--9------7------------------------------------------------------------------|
D|--7------5------------------------------------------------------------------|
A|--7------5------------------------------------------------------------------|
E|--7------5------------------------------------------------------------------|

It's pretty basic as for the chords and the ring out in them once you listen to it and 
many times you hit each chord so i'm not going to put how many times.Just take the time 
listen to it.


| /  slide up
| \  slide down
| h  hammer-on
| p  pull-off
| ~  vibrato
| +  harmonic
| x  Mute note
=============================================================
Related for Rehab tab