Guitaretab - guitar tabs
Song name
# A B C D E F G H I J K L M N O P Q R S T U V W X Y Z

Seether - Blister tab

-----------------------------------------------------------------------------
			     Blister - Seether
-----------------------------------------------------------------------------
Tabbed by: Bogardeth
Email: tamer_of_the_squirrels@yahoo.com

Tuning: Half-Step Down

*1- I didn't tab out chord pattern, figure out the strumming yourself.
*2- I didn't re-tab repeated parts, just check the Song Order at the bottom.
=============================================================================

Intro/Verse: (Em, G, C)
e|-----0--------3-----------------------------------------------------------|
B|------0--------3-----1---0h1-3p1------------------------------------------|
G|-------0--------4-----0-0-------0-0---------------------------------------|
D|--------------------2--2----2----2----------------------------------------|
A|---2--------2----0-3------------------------------------------------------|
E|-0------0-3---------------------------------------------------------------|

Chorus:(Am) (Em) (C)
[ Tab from: http://www.guitaretab.com/s/seether/172191.html ]
Solo (Before Verse 2)
e|-------|------------------------------------------------------------------|
B|-------|12-13-13-13h15-12-13-13-13h15-15-13-12-13----12-15-13-12-13-12----|
G|-12-14-|------------------------------------------12-------------------12-|
D|-------|------------------------------------------------------------------|
A|-------|------------------------------------------------------------------|
E|-------|------------------------------------------------------------------|
(Fade In)|                                                               (x2)

Solo 2:
e|--------------------------------------------------------------------------|
B|--------------------------------------------------------------------------|
G|-----------------------0-----------------------------0--------------------|
D|--------------------------------------------------------------------------|
A|-2h3p2p0-2p0----0-2-33---2-33--2h3p2p0-2p0----0-2-33---2-33---------------|
E|-------------3-3-------------3-------------3-3-------------3--------------|

Outro: Play Intro Slower
(This is the little part played near the end.)
e|----14-15--------------|
B|-12--------------------|
G|-----------------------|
D|-----------------------|
A|-----------------------|
E|-----------------------| (End with Em)

=============================================================================

SONG ORDER:
Intro
Verse
Chorus
Solo + Intro
Verse
Chorus
Solo 2 + Intro
Bridge (Just play verse but don't play chords)
Chorus
Outro

=============================================================================
| /  slide up
| \  slide down
| h  hammer-on
| p  pull-off
| ~  vibrato
| +  harmonic
| x  Mute note
=============================================================================
Related for Blister tab
×
Blister