Guitaretab - guitar tabs
Song name
# A B C D E F G H I J K L M N O P Q R S T U V W X Y Z

Seether - Let Me Go tab

This is the solo to "let me go" by seether.
its just in standard e tuning and it uses
effects thruought.


e--------------------------------------------------|
B-15^-15-14-17p15p14\12/14---(x3)------------------|
G--------------------------------------------------|
D--------------------------------------------------|
A--------------------------------------------------|
E--------------------------------------------------|

e--------------------------------------------------|
B-13h14p13p11-11h12p11p9-13h14p13p11-11h13^--------|
G--------------------------------------------------|
D--------------------------------------------------|
A--------------------------------------------------|
E--------------------------------------------------|
[ Tab from: http://www.guitaretab.com/s/seether/176199.html ]
e------------12-11-10-9-----------------------12-11-10-9-|
B-12-11-10-9------------12-11-10-9-12-11-10-9------------|
G--------------------------------------------------------|
D--------------------------------------------------------|
A--------------------------------------------------------|
E--------------------------------------------------------|


e-----------------------12-11-10-9-----------------------12-11-10-9-|
B-12-11-10-9-12-11-10-9------------12-11-10-9-12-11-10-9------------|
G-------------------------------------------------------------------|
D-------------------------------------------------------------------|
A-------------------------------------------------------------------|
E-------------------------------------------------------------------|


e-----------12---------------------------------|
B-11^-11-10----10-10-12-10-9-10-8-7-8-6-5\2/5\-|
G----------------------------------------------|
D----------------------------------------------|
A----------------------------------------------|
E----------------------------------------------|

im positive this is almost 100% correct
but if not email me at fah_q000@live.com
or message me on myspace.

url: www.myspace.com/stay_and_play000
Related for Let Me Go tab
Advertisement will be closed in 10 seconds