Guitaretab - guitar tabs
Song name
# A B C D E F G H I J K L M N O P Q R S T U V W X Y Z

Seether - Fine Again Live Acoustic tab

-----------------------------------------------------------------------
		    Fine Again Acoustic - Seether
-----------------------------------------------------------------------
Seether
Fine Again Acoustic
One Cold Night

Tabbed by: almosthuman36

Tuning: Down half step Ė Eb Ab Db Gb Bb eb

Most of the second guitar soloing in the intro is correct but Iím not positive, the song 
in F# so just solo in that key.

The Progression goes:

Intro
Verse
PreChorus
Chorus
Verse
PreChorus
Chorus
Bridge
Solo
Chorus/Outro

INTRO
Guitar 1
e|--------------------------0--0---------------------0-0------0---0---|
B|--------------------------0----0-------------------3---3------3-----|
G|--------------------------6------6-----------------2-----2----------|
D|-----4--------4--------7-------------2---2--2-2-2-------------------|
A|-------4----4--------7---------------2-x-2--2-2-2-------------------|
E|--2-------2------2/5-----------------0-x-0--0-0-0-------------------|
Guitar 2
e|-------------------------------------------------------0h2--0h2-----|
B|--------------------------------------------------------------------|
G|--------------------------------------------------------------------|
D|--------------------------------------------------------------------|
A|--------------------------------------------------------------------|
E|--------------------------------------------------------------------|


Guitar 1
e|--------------------------0--0---------------------0-0-----2h3p2----|
B|--------------------------0----0-------------------3---3---------3/5|
G|--------------------------6------6-----------------2-----2----------|
D|-----4--------4--------7-------------2---2--2-2-2-------------------|
A|-------4----4--------7---------------2-x-2--2-2-2-------------------|
E|--2-------2------2/5-----------------0-x-0--0-0-0-------------------|
Guitar 2
e|---------2/5-------------7-------7-------------------10-10-10-10-10-|
B|--------------------------------------------------------------------|
G|--------------------------------------------------------------------|
D|--------------------------------------------------------------------|
A|--------------------------------------------------------------------|
E|--------------------------------------------------------------------|


Guitar 1
e|--------------------------0--0---------------------0----------------|
B|--------------------------0----0-------------------3----------------|
G|--------------------------6------6-----------------2----------------|
D|-----4--------4--------7-------------2---2--2-2-2-------------------|
A|-------4----4--------7---------------2-x-2--2-2-2-------------------|
E|--2-------2------2/5-----------------0-x-0--0-0-0-------------------|
Guitar 2
e|-10-10---------------------------------------------0-0-0h2-3p2-22-00|
B|---------------------------------------------------3-3-3-------55-33|
G|---------------------------------------------------2-2-2------------|
D|--------------------------------------------------------------------|
A|--------------------------------------------------------------------|
E|--------------------------------------------------------------------|

Guitar 1
e|--------------------------0--0---------------------0-0------0---0---|
B|--------------------------0----0-------------------3---3------3-----|
G|--------------------------6------6-----------------2-----2----------|
D|-----4--------4--------7-------------2---2--2-2-2-------------------|
A|-------4----4--------7---------------2-x-2--2-2-2-------------------|
E|--2-------2------2/5-----------------0-x-0--0-0-0-------------------|
Guitar 2
e|--------------------------------------------------------4-4-4-4p2-4-|
B|--2--0--2------------------5-7-7------------------------------------|
G|--------------------------------------------------------------------|
D|--------------------------------------------------------------------|
A|--------------------------------------------------------------------|
E|--------------------------------------------------------------------|


Giutar 1                                   let ring  let ring
e|--------------------------0--0---------------------0----------------|
B|--------------------------0----0-------------------3----------------|
G|--------------------------6------6-------1---------2----------------|
D|-----4--------4--------7-------------2---2--------------------------|
A|-------4----4--------7---------------2-x-2ó-------------------------|
E|--2-------2------2/5-----------------0-x-0--------------------------|
Guitar 2
e|-2-2/4ó4/5----------------------------------------------------------|
B|--------------------------------------------------------------------|
G|--------------------------------------------------------------------|
D|--------------------------------------------------------------------|
A|--------------------------------------------------------------------|
E|--------------------------------------------------------------------|


Guitar 1
e|---------------------------------------------x--x-------------------|
B|---------------------------------------------3--3-------------------|
G|---------------------------------------------2--2-------------------|
D|-x-x-x-x----------4--------7-----2---2-------0--0-------------------|
A|-x-x-x-x--xx----4--------7---xx--2-2----xx--------------------------|
E|-x-x-x-x--xx--2------2/5-----xx--0------xx--------------------------|
Guitar 2
e|-----------------------4-----4--4-----4--5--------------------------|
B|--------------------5-----5--------5--------------------------------|
G|-----------------6--------------------------------------------------|
D|-x-x-x-x------4-----------------------------------------------------|
A|-x-x-x-x--xx--------------------------------------------------------|
E|-x-x-x-x--xx--------------------------------------------------------|


Guitar 1
e|-------------------------------------x--x---------------------------|
B|-------------------------------------3--3---------------------------|
G|-------------------------------------2--2---------------------------|
D|----------4--------7-----2---2-------0--0---------------------------|
A|--------4--------7---xx--2-2----xx----------------------------------|
E|------2------2/5-----xx--0------xx----------------------------------|
Guitar 2
e|------4-----4--5-----5--4-----/4--2----0h2--------------------------|
B|---------5--------5--------5----------------------------------------|
G|--------------------------------------------------------------------|
D|--------------------------------------------------------------------|
A|--------------------------------------------------------------------|
E|--------------------------------------------------------------------|

VERSE

Guitar 1
e|-------------------------------------x-x----------------------------|
B|-------------------------------------2-2----------------------------|
G|-------------------------------------3-3----------------------------|
D|--4--4-x-x--7-7-7-7--x-x-2--2-x-x--x-0-0----------------------------|
A|--4--4-x-x--7-7-7-7--x-x-2--2-x-x--x--------------------------------|
E|--2--2-x-x--5-5-5-5--x-x-0--0-x-x--x--------------------------------|
Guitar 2
e|-------------------------------------x-x----------------------------|
B|-------------------------------------2-2----------------------------|
G|-------------------------------------3-3----------------------------|
D|--4--4-x-x--7-7-7-7--x-x-2--2-x-x--x-0-0----------------------------|
A|--4--4-x-x--7-7-7-7--x-x-2--2-x-x--x--------------------------------|
E|--2--2-x-x--5-5-5-5--x-x-0--0-x-x--x--------------------------------|
   It seems like everyday is the same and Iím


Guitar 1
e|-------------------------------------x-x----------------------------|
B|-------------------------------------2-2----------------------------|
G|-------------------------------------3-3----------------------------|
D|--4--4-x-x--7-7-7-7--x-x-2--2-x-x--x-0-0----------------------------|
A|--4--4-x-x--7-7-7-7--x-x-2--2-x-x--x--------------------------------|
E|--2--2-x-x--5-5-5-5--x-x-0--0-x-x--x--------------------------------|
Guitar 2
e|-------------------------------------x-x----------------------------|
B|-------------------------------------2-2----------------------------|
G|-------------------------------------3-3----------------------------|
D|--4--4-x-x--7-7-7-7--x-x-2--2-x-x--x-0-0----------------------------|
A|--4--4-x-x--7-7-7-7--x-x-2--2-x-x--x--------------------------------|
E|--2--2-x-x--5-5-5-5--x-x-0--0-x-x--x--------------------------------|
   Left to discover on my own.

Guitar 1
e|-------------------------------------x-x----------------------------|
B|-------------------------------------2-2----------------------------|
G|-------------------------------------3-3----------------------------|
D|--4--4-x-x--7-7-7-7--x-x-2--2-x-x--x-0-0----------------------------|
A|--4--4-x-x--7-7-7-7--x-x-2--2-x-x--x--------------------------------|
E|--2--2-x-x--5-5-5-5--x-x-0--0-x-x--x--------------------------------|
Guitar 2
e|-------------------------------------x-x----------------------------|
B|-------------------------------------2-2----------------------------|
G|-------------------------------------3-3----------------------------|
D|--4--4-x-x--7-7-7-7--x-x-2--2-x-x--x-0-0----------------------------|
A|--4--4-x-x--7-7-7-7--x-x-2--2-x-x--x--------------------------------|
E|--2--2-x-x--5-5-5-5--x-x-0--0-x-x--x--------------------------------|
   It seems like everything is grey and

Guitar 1
e|-------------------------------------x-x----------------------------|
B|-------------------------------------2-2----------------------------|
G|-------------------------------------3-3----------------------------|
D|--4--4-x-x--7-7-7-7--x-x-2--2-x-x--x-0-0----------------------------|
A|--4--4-x-x--7-7-7-7--x-x-2--2-x-x--x--------------------------------|
E|--2--2-x-x--5-5-5-5--x-x-0--0-x-x--x--------------------------------|
Guitar 2
e|-------------------------------------x-x----------------------------|
B|-------------------------------------2-2----------------------------|
G|-------------------------------------3-3----------------------------|
D|--4--4-x-x--7-7-7-7--x-x-2--2-x-x--x-0-0----------------------------|
A|--4--4-x-x--7-7-7-7--x-x-2--2-x-x--x--------------------------------|
E|--2--2-x-x--5-5-5-5--x-x-0--0-x-x--x--------------------------------|
    thereís no color to behold

PRECHORUS

Guitar 1
e|-------------------------------------x-x----------------------------|
B|-------------------------------------2-2----------------------------|
G|-------------------------------------3-3----------------------------|
D|--4--4-x-x--7-7-7-7--x-x-2--2-x-x--x-0-0----------------------------|
A|--4--4-x-x--7-7-7-7--x-x-2--2-x-x--x--------------------------------|
E|--2--2-x-x--5-5-5-5--x-x-0--0-x-x--x--------------------------------|
Guitar 2
e|--------------------------------------------------------------------|
B|--------------------------------------------------------------------|
G|--------------------------------------------------------------------|
D|--------------------------------------------------------------------|
A|--------------------------------------------------------------------|
E|--------------------------------------------------------------------|
        They say itís over and Iím

Guitar 1
e|-------------------------------------x-x----------------------------|
B|-------------------------------------2-2----------------------------|
G|-------------------------------------3-3----------------------------|
D|--4--4-x-x--7-7-7-7--x-x-2--2-x-x--x-0-0----------------------------|
A|--4--4-x-x--7-7-7-7--x-x-2--2-x-x--x--------------------------------|
E|--2--2-x-x--5-5-5-5--x-x-0--0-x-x--x--------------------------------|
Guitar 2
e|--------------------------------0-----------------------------------|
B|------------------------------2---0ó0h2-----------------------------|
G|--------------------------------------------------------------------|
D|--------------------------------------------------------------------|
A|--------------------------------------------------------------------|
E|--------------------------------------------------------------------|
	Fine again, yeah

Guitar 1
e|-------------------------------------x-x----------------------------|
B|-------------------------------------2-2----------------------------|
G|-------------------------------------3-3----------------------------|
D|--4--4-x-x--7-7-7-7--x-x-2--2-x-x--x-0-0----------------------------|
A|--4--4-x-x--7-7-7-7--x-x-2--2-x-x--x--------------------------------|
E|--2--2-x-x--5-5-5-5--x-x-0--0-x-x--x--------------------------------|
Guitar 2
e|--------------------------------------------------------------------|
B|--------------------------------------------------------------------|
G|--------------------------------------------------------------------|
D|--------------------------------------------------------------------|
A|--------------------------------------------------------------------|
E|--------------------------------------------------------------------|
   Tried to stay sober, feels

Guitar 1
e|-------------------------------------x-x----------------------------|
B|-------------------------------------2-2----------------------------|
G|-------------------------------------3-3----------------------------|
D|--4--4-x-x--7-7-7-7--x-x-2--2-x-x--x-0-0----------------------------|
A|--4--4-x-x--7-7-7-7--x-x-2--2-x-x--x--------------------------------|
E|--2--2-x-x--5-5-5-5--x-x-0--0-x-x--x--------------------------------|
Guitar 2
e|---4-----4--5-----5--4-----/4ó-2---0h2p0----------------------------|
B|------5--------5--------5-------------------------------------------|
G|--------------------------------------------------------------------|
D|--------------------------------------------------------------------|
A|--------------------------------------------------------------------|
E|--------------------------------------------------------------------|
    like Iím dying here

CHORUS

Guitar 1
e|--------------------------------------------------------------------|
B|--------------------------------------------------------------------|
G|-----------7-7-7-7------4-4-----------------------------------------|
D|--4-4-x-x--7-7-7-7-x-x--4-4-x-x-x-x--2-2----------------------------|
A|--4-4-x-x--5-5-5-5-x-x--2-2-x-x-x-x--2-2----------------------------|
E|--2-2-x-x----------x-x------x-x-x-x--0-0----------------------------|
Guitar 2
e|--------------------------------------------------------------------|
B|--------------------------------------------------------------------|
G|-----------7-7-7-7------4-4-----------------------------------------|
D|--4-4-x-x--7-7-7-7-x-x--4-4-x-x-x-x--2-2----------------------------|
A|--4-4-x-x--5-5-5-5-x-x--2-2-x-x-x-x--2-2----------------------------|
E|--2-2-x-x----------x-x------x-x-x-x--0-0----------------------------|
 And I am aware now of how everythings gonna

Guitar 1
e|--------------------------------------------------------------------|
B|--------------------------------------------------------------------|
G|-----------7-7-7-7------4-4-----------------------------------------|
D|--4-4-x-x--7-7-7-7-x-x--4-4-x-x-x-x--2-2----------------------------|
A|--4-4-x-x--5-5-5-5-x-x--2-2-x-x-x-x--2-2----------------------------|
E|--2-2-x-x----------x-x------x-x-x-x--0-0----------------------------|
Guitar 2
e|--------------------------------------------------------------------|
B|--------------------------------------------------------------------|
G|-----------7-7-7-7------4-4-----------------------------------------|
D|--4-4-x-x--7-7-7-7-x-x--4-4-x-x-x-x--2-2----------------------------|
A|--4-4-x-x--5-5-5-5-x-x--2-2-x-x-x-x--2-2----------------------------|
E|--2-2-x-x----------x-x------x-x-x-x--0-0----------------------------|
  be fine, one day too late, Iím in hell

Guitar 1
e|--------------------------------------------------------------------|
B|--------------------------------------------------------------------|
G|-----------7-7-7-7------4-4-----------------------------------------|
D|--4-4-x-x--7-7-7-7-x-x--4-4-x-x-x-x--2-2----------------------------|
A|--4-4-x-x--5-5-5-5-x-x--2-2-x-x-x-x--2-2----------------------------|
E|--2-2-x-x----------x-x------x-x-x-x--0-0----------------------------|
Guitar 2
e|--------------------------------------------------------------------|
B|--------------------------------------------------------------------|
G|-----------7-7-7-7------4-4-----------------------------------------|
D|--4-4-x-x--7-7-7-7-x-x--4-4-x-x-x-x--2-2----------------------------|
A|--4-4-x-x--5-5-5-5-x-x--2-2-x-x-x-x--2-2----------------------------|
E|--2-2-x-x----------x-x------x-x-x-x--0-0----------------------------|
      I am prepared now seems everyones gonna

Guitar 1
e|--------------------------------------------------------------------|
B|--------------------------------------------------------------------|
G|-----------7-7-7-7------4-4-----------------------------------------|
D|--4-4-x-x--7-7-7-7-x-x--4-4-x-x-x-x--2-2----------------------------|
A|--4-4-x-x--5-5-5-5-x-x--2-2-x-x-x-x--2-2----------------------------|
E|--2-2-x-x----------x-x------x-x-x-x--0-0----------------------------|
Guitar 2
e|--------------------------------------------------------------------|
B|--------------------------------------------------------------------|
G|-----------7-7-7-7------4-4-----------------------------------------|
D|--4-4-x-x--7-7-7-7-x-x--4-4-x-x-x-x--2-2----------------------------|
A|--4-4-x-x--5-5-5-5-x-x--2-2-x-x-x-x--2-2----------------------------|
E|--2-2-x-x----------x-x------x-x-x-x--0-0----------------------------|
 be fine, one day too late, just as well

VERSE 2

Guitar 1
e|-----------------------------------------x--x-----------------------|
B|-----------------------------------------3--3-----------------------|
G|-----------------------------------------2--2-----------------------|
D|-x-x----------4--------7-----2---2-------0--0-----------------------|
A|-x-x--xx----4--------7---xx--2-2----xx------------------------------|
E|-x-x--xx--2------2/5-----xx--0------xx------------------------------|
Guitar 2
e|-----------------------------------------x--x-----------------------|
B|-----------------------------------------3--3-----------------------|
G|-----------------------------------------2--2-----------------------|
D|-x-x----------4--------7-----2---2-------0--0-----------------------|
A|-x-x--xx----4--------7---xx--2-2----xx------------------------------|
E|-x-x--xx--2------2/5-----xx--0------xx------------------------------|
    I feel the dream in me expire, and

Guitar 1
e|-------------------------------------x-x----------------------------|
B|-------------------------------------2-2----------------------------|
G|-------------------------------------3-3----------------------------|
D|--4--4-x-x--7-7-7-7--x-x-2--2-x-x--x-0-0----------------------------|
A|--4--4-x-x--7-7-7-7--x-x-2--2-x-x--x--------------------------------|
E|--2--2-x-x--5-5-5-5--x-x-0--0-x-x--x--------------------------------|
Guitar 2
e|-------------------------------------x-x----------------------------|
B|-------------------------------------2-2----------------------------|
G|-------------------------------------3-3----------------------------|
D|--4--4-x-x--7-7-7-7--x-x-2--2-x-x--x-0-0----------------------------|
A|--4--4-x-x--7-7-7-7--x-x-2--2-x-x--x--------------------------------|
E|--2--2-x-x--5-5-5-5--x-x-0--0-x-x--x--------------------------------|
   theres no one left to blame it on
[ Tab from: http://www.guitaretab.com/s/seether/180788.html ]
Guitar 1
e|-------------------------------------x-x----------------------------|
B|-------------------------------------2-2----------------------------|
G|-------------------------------------3-3----------------------------|
D|--4--4-x-x--7-7-7-7--x-x-2--2-x-x--x-0-0----------------------------|
A|--4--4-x-x--7-7-7-7--x-x-2--2-x-x--x--------------------------------|
E|--2--2-x-x--5-5-5-5--x-x-0--0-x-x--x--------------------------------|
Guitar 2
e|-------------------------------------x-x----------------------------|
B|-------------------------------------2-2----------------------------|
G|-------------------------------------3-3----------------------------|
D|--4--4-x-x--7-7-7-7--x-x-2--2-x-x--x-0-0----------------------------|
A|--4--4-x-x--7-7-7-7--x-x-2--2-x-x--x--------------------------------|
E|--2--2-x-x--5-5-5-5--x-x-0--0-x-x--x--------------------------------|
   I here you label me a liar, cuz

Guitar 1
e|-------------------------------------x-x----------------------------|
B|-------------------------------------2-2----------------------------|
G|-------------------------------------3-3----------------------------|
D|--4--4-x-x--7-7-7-7--x-x-2--2-x-x--x-0-0----------------------------|
A|--4--4-x-x--7-7-7-7--x-x-2--2-x-x--x--------------------------------|
E|--2--2-x-x--5-5-5-5--x-x-0--0-x-x--x--------------------------------|
Guitar 2
e|-------------------------------------x-x----------------------------|
B|-------------------------------------2-2----------------------------|
G|-------------------------------------3-3----------------------------|
D|--4--4-x-x--7-7-7-7--x-x-2--2-x-x--x-0-0----------------------------|
A|--4--4-x-x--7-7-7-7--x-x-2--2-x-x--x--------------------------------|
E|--2--2-x-x--5-5-5-5--x-x-0--0-x-x--x--------------------------------|
   I canít seem to get this through

PRECHORUS 2

Guitar 1
e|-------------------------------------x-x----------------------------|
B|-------------------------------------2-2----------------------------|
G|-------------------------------------3-3----------------------------|
D|--4--4-x-x--7-7-7-7--x-x-2--2-x-x--x-0-0----------------------------|
A|--4--4-x-x--7-7-7-7--x-x-2--2-x-x--x--------------------------------|
E|--2--2-x-x--5-5-5-5--x-x-0--0-x-x--x--------------------------------|
Guitar 2
e|--------------------------------0-----------------------------------|
B|------------------------------2---0ó0h2-----------------------------|
G|--------------------------------------------------------------------|
D|--------------------------------------------------------------------|
A|--------------------------------------------------------------------|
E|--------------------------------------------------------------------|
  You say its over, I can sigh again, yeah

Guitar 1
e|--------------------------------------------------------------------|
B|--------------------------------------------------------------------|
G|------No-guitar-plays-over-this-part--------------------------------|
D|--------------------------------------------------------------------|
A|--------------------------------------------------------------------|
E|--------------------------------------------------------------------|
Guitar 2
e|--------------------------------------------------------------------|
B|--------------------------------------------------------------------|
G|------No-guitar-plays-over-this-part--------------------------------|
D|--------------------------------------------------------------------|
A|--------------------------------------------------------------------|
E|--------------------------------------------------------------------|
   Why try to stay sober, when Iím dying here?

CHORUS 2

Guitar 1
e|--------------------------------------------------------------------|
B|--------------------------------------------------------------------|
G|-----------7-7-7-7------4-4-----------------------------------------|
D|--4-4-x-x--7-7-7-7-x-x--4-4-x-x-x-x--2-2----------------------------|
A|--4-4-x-x--5-5-5-5-x-x--2-2-x-x-x-x--2-2----------------------------|
E|--2-2-x-x----------x-x------x-x-x-x--0-0----------------------------|
Guitar 2
e|--------------------------------------------------------------------|
B|--------------------------------------------------------------------|
G|-----------7-7-7-7------4-4-----------------------------------------|
D|--4-4-x-x--7-7-7-7-x-x--4-4-x-x-x-x--2-2----------------------------|
A|--4-4-x-x--5-5-5-5-x-x--2-2-x-x-x-x--2-2----------------------------|
E|--2-2-x-x----------x-x------x-x-x-x--0-0----------------------------|
 And I am aware now of how everythings gonna

Guitar 1
e|--------------------------------------------------------------------|
B|--------------------------------------------------------------------|
G|-----------7-7-7-7------4-4-----------------------------------------|
D|--4-4-x-x--7-7-7-7-x-x--4-4-x-x-x-x--2-2----------------------------|
A|--4-4-x-x--5-5-5-5-x-x--2-2-x-x-x-x--2-2----------------------------|
E|--2-2-x-x----------x-x------x-x-x-x--0-0----------------------------|
Guitar 2
e|--------------------------------------------------------------------|
B|--------------------------------------------------------------------|
G|-----------7-7-7-7------4-4-----------------------------------------|
D|--4-4-x-x--7-7-7-7-x-x--4-4-x-x-x-x--2-2----------------------------|
A|--4-4-x-x--5-5-5-5-x-x--2-2-x-x-x-x--2-2----------------------------|
E|--2-2-x-x----------x-x------x-x-x-x--0-0----------------------------|
  be fine, one day too late, Iím in hell

Guitar 1
e|--------------------------------------------------------------------|
B|--------------------------------------------------------------------|
G|-----------7-7-7-7------4-4-----------------------------------------|
D|--4-4-x-x--7-7-7-7-x-x--4-4-x-x-x-x--2-2----------------------------|
A|--4-4-x-x--5-5-5-5-x-x--2-2-x-x-x-x--2-2----------------------------|
E|--2-2-x-x----------x-x------x-x-x-x--0-0----------------------------|
Guitar 2
e|--------------------------------------------------------------------|
B|--------------------------------------------------------------------|
G|-----------7-7-7-7------4-4-----------------------------------------|
D|--4-4-x-x--7-7-7-7-x-x--4-4-x-x-x-x--2-2----------------------------|
A|--4-4-x-x--5-5-5-5-x-x--2-2-x-x-x-x--2-2----------------------------|
E|--2-2-x-x----------x-x------x-x-x-x--0-0----------------------------|
      I am prepared now seems everyones gonna

Guitar 1
e|--------------------------------------------------------------------|
B|--------------------------------------------------------------------|
G|-----------7-7-7-7------4-4-----------------------------------------|
D|--4-4-x-x--7-7-7-7-x-x--4-4-x-x-x-x--2-2----------------------------|
A|--4-4-x-x--5-5-5-5-x-x--2-2-x-x-x-x--2-2----------------------------|
E|--2-2-x-x----------x-x------x-x-x-x--0-0----------------------------|
Guitar 2
e|--------------------------------------------------------------------|
B|--------------------------------------------------------------------|
G|-----------7-7-7-7------4-4-----------------------------------------|
D|--4-4-x-x--7-7-7-7-x-x--4-4-x-x-x-x--2-2----------------------------|
A|--4-4-x-x--5-5-5-5-x-x--2-2-x-x-x-x--2-2----------------------------|
E|--2-2-x-x----------x-x------x-x-x-x--0-0----------------------------|
 be fine, one day too late, just as well

BRIDGE

Guitar 1
e|-----------0--------------------------------------------------------|
B|---------3-----3----------------------------------------------------|
G|-------2---------2----------------3---------------------------------|
D|-----0-------------0------------4-----4-----------------------------|
A|------------------------------4---------4---------------------------|
E|----------------------------2-------------2-------------------------|
Guitar 2
e|--------------------------------------------------------------------|
B|--------------------------------------------------------------------|
G|--------------------------------------------------------------------|
D|--------------------------------------------------------------------|
A|--------------------------------------------------------------------|
E|--------------------------------------------------------------------|
       And Iím not scared now

Guitar 1
e|-----------0--------------------------------------------------------|
B|---------3-----3----------------------------------------------------|
G|-------2---------2----------------3---------------------------------|
D|-----0-------------0------------4-----4-----------------------------|
A|------------------------------4---------4---------------------------|
E|----------------------------2-------------2-------------------------|
Guitar 2
e|--------------------------------------------------------------------|
B|--------------------------------------------------------------------|
G|--------------------------------------------------------------------|
D|--------------------------------------------------------------------|
A|--------------------------------------------------------------------|
E|--------------------------------------------------------------------|
      I must assure you, your never gonna get away

Guitar 1
e|-----------0--------------------------------------------------------|
B|---------3-----3----------------------------------------------------|
G|-------2---------2----------------3---------------------------------|
D|-----0-------------0------------4-----4-----------------------------|
A|------------------------------4---------4---------------------------|
E|----------------------------2-------------2-------------------------|
Guitar 2
e|--------------------------------------------------------------------|
B|--------------------------------------------------------------------|
G|--------------------------------------------------------------------|
D|--------------------------------------------------------------------|
A|--------------------------------------------------------------------|
E|--------------------------------------------------------------------|
    And Iím not scared now, no, Iím not scared now, no

SOLO

Guitar 1
e|---9-----10-----9-----10-----9-----10-----12-----10-----------------|
B|-----10-----10----10-----10----10-----10-----10-----10--------------|
G|--------------------------------------------------------------------|
D|--------------------------------------------------------------------|
A|--------------------------------------------------------------------|
E|--------------------------------------------------------------------|
Guitar 2    (play quietly)
e|--------------------------------------------------------------------|
B|--------------------------------------------------------------------|
G|-----------7-7-7-7------4-4-----------------------------------------|
D|--4-4-x-x--7-7-7-7-x-x--4-4-x-x-x-x--2-2----------------------------|
A|--4-4-x-x--5-5-5-5-x-x--2-2-x-x-x-x--2-2----------------------------|
E|--2-2-x-x----------x-x------x-x-x-x--0-0----------------------------|

Guitar 1
e|---9-----10-----9-----10-----9-----10-----12-----10-----------------|
B|-----10-----10----10-----10----10-----10-----10-----10--------------|
G|--------------------------------------------------------------------|
D|--------------------------------------------------------------------|
A|--------------------------------------------------------------------|
E|--------------------------------------------------------------------|
Guitar 2    (play quietly)
e|--------------------------------------------------------------------|
B|--------------------------------------------------------------------|
G|-----------7-7-7-7------4-4-----------------------------------------|
D|--4-4-x-x--7-7-7-7-x-x--4-4-x-x-x-x--2-2----------------------------|
A|--4-4-x-x--5-5-5-5-x-x--2-2-x-x-x-x--2-2----------------------------|
E|--2-2-x-x----------x-x------x-x-x-x--0-0----------------------------|

CHORUS/OUTRO
Guitar 1
e|---9-----10-----9-----10-----9-----10-----12-----10-----------------|
B|-----10-----10----10-----10----10-----10-----10-----10--------------|
G|--------------------------------------------------------------------|
D|--------------------------------------------------------------------|
A|--------------------------------------------------------------------|
E|--------------------------------------------------------------------|
Guitar 2    (resume playing loudly)
e|--------------------------------------------------------------------|
B|--------------------------------------------------------------------|
G|-----------7-7-7-7------4-4-----------------------------------------|
D|--4-4-x-x--7-7-7-7-x-x--4-4-x-x-x-x--2-2----------------------------|
A|--4-4-x-x--5-5-5-5-x-x--2-2-x-x-x-x--2-2----------------------------|
E|--2-2-x-x----------x-x------x-x-x-x--0-0----------------------------|
  Yeah, and I am prepared now seems everyones gonna

Guitar 1
e|---9-----10-----9-----10-----9-----10-----12-----10-----------------|
B|-----10-----10----10-----10----10-----10-----10-----10--------------|
G|--------------------------------------------------------------------|
D|--------------------------------------------------------------------|
A|--------------------------------------------------------------------|
E|--------------------------------------------------------------------|
Guitar 2
e|--------------------------------------------------------------------|
B|--------------------------------------------------------------------|
G|-----------7-7-7-7------4-4-----------------------------------------|
D|--4-4-x-x--7-7-7-7-x-x--4-4-x-x-x-x--2-2----------------------------|
A|--4-4-x-x--5-5-5-5-x-x--2-2-x-x-x-x--2-2----------------------------|
E|--2-2-x-x----------x-x------x-x-x-x--0-0----------------------------|
   Be fine, one day, too late, Iím en hell

Guitar 1
e|---9-----10-----9-----10-----9-----10-----12-----10-----------------|
B|-----10-----10----10-----10----10-----10-----10-----10--------------|
G|--------------------------------------------------------------------|
D|--------------------------------------------------------------------|
A|--------------------------------------------------------------------|
E|--------------------------------------------------------------------|
Guitar 2
e|--------------------------------------------------------------------|
B|--------------------------------------------------------------------|
G|-----------7-7-7-7------4-4-----------------------------------------|
D|--4-4-x-x--7-7-7-7-x-x--4-4-x-x-x-x--2-2----------------------------|
A|--4-4-x-x--5-5-5-5-x-x--2-2-x-x-x-x--2-2----------------------------|
E|--2-2-x-x----------x-x------x-x-x-x--0-0----------------------------|
    I am prepared now, seems everythings gonna

Guitar 1
e|---9-----10-----9-----10-----9-----10-----12-----10-----------------|
B|-----10-----10----10-----10----10-----10-----10-----10--------------|
G|--------------------------------------------------------------------|
D|--------------------------------------------------------------------|
A|--------------------------------------------------------------------|
E|--------------------------------------------------------------------|
Guitar 2
e|--------------------------------------------------------------------|
B|--------------------------------------------------------------------|
G|-----------7-7-7-7------4-4-----------------------------------------|
D|--4-4-x-x--7-7-7-7-x-x--4-4-x-x-x-x--2-2----------------------------|
A|--4-4-x-x--5-5-5-5-x-x--2-2-x-x-x-x--2-2----------------------------|
E|--2-2-x-x----------x-x------x-x-x-x--0-0----------------------------|
   Be fine, one day, too late, just as well

Guitar 1
e|--------------------------------------------------------------------|
B|--------------------------------------------------------------------|
G|-----------7-7-7-7------4-4-----------------------------------------|
D|--4-4-x-x--7-7-7-7-x-x--4-4-x-x-x-x--2-2----------------------------|
A|--4-4-x-x--5-5-5-5-x-x--2-2-x-x-x-x--2-2----------------------------|
E|--2-2-x-x----------x-x------x-x-x-x--0-0----------------------------|
Guitar 2
e|--------------------------------------------------------------------|
B|--------------------------------------------------------------------|
G|-----------7-7-7-7------4-4-----------------------------------------|
D|--4-4-x-x--7-7-7-7-x-x--4-4-x-x-x-x--2-2----------------------------|
A|--4-4-x-x--5-5-5-5-x-x--2-2-x-x-x-x--2-2----------------------------|
E|--2-2-x-x----------x-x------x-x-x-x--0-0----------------------------|
   I am prepared now seems everythings gonna

Guitar 1
e|--------------------------------------------------------------------|
B|--------------------------------------------------------------------|
G|-----------7-7-7-7------4-4-----------------------------------------|
D|--4-4-x-x--7-7-7-7-x-x--4-4-x-x-x-x--2-2----------------------------|
A|--4-4-x-x--5-5-5-5-x-x--2-2-x-x-x-x--2-2----------------------------|
E|--2-2-x-x----------x-x------x-x-x-x--0-0----------------------------|
Guitar 2
e|--------------------------------------------------------------------|
B|--------------------------------------------------------------------|
G|-----------7-7-7-7------4-4-----------------------------------------|
D|--4-4-x-x--7-7-7-7-x-x--4-4-x-x-x-x--2-2----------------------------|
A|--4-4-x-x--5-5-5-5-x-x--2-2-x-x-x-x--2-2----------------------------|
E|--2-2-x-x----------x-x------x-x-x-x--0-0----------------------------|
   Be fine, for me, for me, for myself

Guitar 1
e|--------------------------------------------------------------------|
B|--------------------------------------------------------------------|
G|-----------7-7-7-7------4-4-----------------------------------------|
D|--4-4-x-x--7-7-7-7-x-x--4-4-x-x-x-x--2-2----------------------------|
A|--4-4-x-x--5-5-5-5-x-x--2-2-x-x-x-x--2-2----------------------------|
E|--2-2-x-x----------x-x------x-x-x-x--0-0----------------------------|
Guitar 2
e|--------------------------------------------------------------------|
B|--------------------------------------------------------------------|
G|-----------7-7-7-7------4-4-----------------------------------------|
D|--4-4-x-x--7-7-7-7-x-x--4-4-x-x-x-x--2-2----------------------------|
A|--4-4-x-x--5-5-5-5-x-x--2-2-x-x-x-x--2-2----------------------------|
E|--2-2-x-x----------x-x------x-x-x-x--0-0----------------------------|
      For me, For me, For myself

Guitar 1
e|--------------------------------------------------------------------|
B|--------------------------------------------------------------------|
G|-----------7-7-7-7------4-4-----------------------------------------|
D|--4-4-x-x--7-7-7-7-x-x--4-4-x-x-x-x--2-2----------------------------|
A|--4-4-x-x--5-5-5-5-x-x--2-2-x-x-x-x--2-2----------------------------|
E|--2-2-x-x----------x-x------x-x-x-x--0-0----------------------------|
Guitar 2
e|--------------------------------------------------------------------|
B|--------------------------------------------------------------------|
G|-----------7-7-7-7------4-4-----------------------------------------|
D|--4-4-x-x--7-7-7-7-x-x--4-4-x-x-x-x--2-2----------------------------|
A|--4-4-x-x--5-5-5-5-x-x--2-2-x-x-x-x--2-2----------------------------|
E|--2-2-x-x----------x-x------x-x-x-x--0-0----------------------------|
      For me, For me, For myself

Guitar 1
e|--------------------------------------------------------------------|
B|--------------------------------------------------------------------|
G|-----------7-7-7-7------4-4-----------------------------------------|
D|--4-4-x-x--7-7-7-7-x-x--4-4-x-x-x-x--2-2----------------------------|
A|--4-4-x-x--5-5-5-5-x-x--2-2-x-x-x-x--2-2----------------------------|
E|--2-2-x-x----------x-x------x-x-x-x--0-0----------------------------|
Guitar 2
e|--------------------------------------------------------------------|
B|--------------------------------------------------------------------|
G|-----------7-7-7-7------4-4-----------------------------------------|
D|--4-4-x-x--7-7-7-7-x-x--4-4-x-x-x-x--2-2----------------------------|
A|--4-4-x-x--5-5-5-5-x-x--2-2-x-x-x-x--2-2----------------------------|
E|--2-2-x-x----------x-x------x-x-x-x--0-0----------------------------|
    I am prepared now, for myself

Guitar 1
e|-------------------------------------0------------------------------|
B|-------------------------------------0------------------------------|
G|-----------7-7-7-7------4-4----------1------------------------------|
D|--4-4-x-x--7-7-7-7-x-x--4-4-x-x-x-x--2------------------------------|
A|--4-4-x-x--5-5-5-5-x-x--2-2-x-x-x-x--2------------------------------|
E|--2-2-x-x----------x-x------x-x-x-x--0------------------------------|
Guitar 2
e|-------------------------------------0------------------------------|
B|-------------------------------------0------------------------------|
G|-----------7-7-7-7------4-4----------1------------------------------|
D|--4-4-x-x--7-7-7-7-x-x--4-4-x-x-x-x--2------------------------------|
A|--4-4-x-x--5-5-5-5-x-x--2-2-x-x-x-x--2------------------------------|
E|--2-2-x-x----------x-x------x-x-x-x--0------------------------------|
    And I am Fine.........                        Again.

| /  slide up
| \  slide down
| h  hammer-on
| p  pull-off
| ~  vibrato
| +  harmonic
| x  Mute note
===============================================================================
Related for Fine Again Live Acoustic tab