Song name
# A B C D E F G H I J K L M N O P Q R S T U V W X Y Z

Seether - Driven Under Acoustic tab

----------------------------------------------------------------------------
     SEETHER - DRIVEN UNDER
----------------------------------------------------------------------------
Driven Under by Seether   (one cold night version)

Tabbed by:g3n3r4l5464


Tuning: half-step down...(flat).

 this is as close as it gets.  its meant to be played on an acoustic
 but works for the electric as well.

 intro and verse:
e|--------------------------------------------------------------------------|
B|--------------------------------------------------------------------------|
G|-----9------9------9-----9------9-----9-----9-----9---9-7--9-7---9--------|
D|---7------7------7-----7------7-----7-----7-----7-------------------------|
A|-8------8------8-----8----0-7-----7-----7-----7-----7-----7----7----------|
E|--------------------------------------------------------------------------|

  chorus: strumming is not exact
e|-1--1-1-1---0--0-0-0----1--1-1-1---0--0---0---0---------------------------|
B|-1--1-1-1---0--0-0-0----1--1-1-1---0--0---0---0---------------------------|
G|-2--2-2-2---2--2-2-2----2--2-2-2---x--x-----------------------------------|
D|-3--3-3-3---2--2-2-2----3--3-3-3---2--2-2---2-----------------------------|
A|-3--3-3-3---------------3--3-3-3---2--2-2---2-----------------------------|
E|-1--1-1-1---------------1--1-1-1---0--0-0---0-----------------------------|

  breakdown:
e|--------------------------------------------------------------------------|
B|--------------------------------------------------------------------------|
G|--------------------------------------------------------------------------|
D|-7-7-7-7-x--3-3-3-3-x--5-5-5-5-x--5-5-5-5-/-3-3-3-3-----------------------|
A|-5-5-5-5-x--3-3-3-3-x--3-3-3-3-x--5-5-5-5-/-3-3-3-3-----------------------|
E|-5-5-5-5-x--1-1-1-1-x--3-3-3-3-x--3-3-3-3-/-1-1-1-1-----------------------|

  this is the end of the breakdrown (played slow)
e|--------------------------------------------------------------------------|
B|--------------------------------------------------------------------------|
G|--------------------------------------------------------------------------|
D|-3/7--7--7/3--3--3/7--7---7--7/3---3---2----------------------------------|
A|-3/7--7--7/3--3--3/7--7--7---7/3---3---2---x-x----------------------------|
E|-1/5--5--5/1--1--1/5--5------5/1---1---0---x-x----------------------------|

  after the pick scraps immediately go into the chorus riff.



| /  slide up
| \  slide down
| h  hammer-on
| p  pull-off
| ~  vibrato
| +  harmonic
| x  Mute note
============================================================================
Tap to rate this tab
# A B C D E F G H I J K L M N O P Q R S T U V W X Y Z