Song name
# A B C D E F G H I J K L M N O P Q R S T U V W X Y Z

Seether - Blister tab

-------------------------------------------------------------------------------
			     BLISTER  - Seether
-------------------------------------------------------------------------------
Tabbed by: NBR555
Email: nbr555@rambler.ru

Tuning: half-step down

Intro & Verse:

:
e|-------0--------|-------3--------|---------------|-----------------|
B|-------0--------|-------3--3-----|------1--------|-0h1---3p1-------|
G|----------0-----|--------------0-|---------0---0-|-----------0---0-|
D|----------------|----------------|----2------2---|-----2---------0-|
A|----2-------2-0-|----2-------2---|-3-------------|-------------3---|
E|-0--------0---0-|-3------------3-|---------------|-----------3-----|

Chorus:

e|------0----------|-------------------|    |-----------------------------|
B|----1----1/3\1-0-|------4/5--0----0--|    |----------------------8--6---|
G|-2-------2/4\2-0-|----0-3/4----0-----|    |-5---4-5--7--5--4--5---------|
D|-----------------|-2-----------------|    |-5---------------------------|
A|-----------------|-----------2-------|    |-----------------------------|
E|-----------------|-------------3-----|X3  |-----------------------------|

Solo 1:

(with intro figure)
e|-----------------------------------------------------------------------|
B|-------12--13--13-15--12--13--13-15--/15-13-12-13----12h13p12-15-13----|
G|-(14)------------------------------------------------------------------|
D|-----------------------------------------------------------------------|
A|-----------------------------------------------------------------------|
E|-----------------------------------------------------------------------|

e|-----------------------------------------------------------------|
B|-12--13--13-15--12--13--13-15--/15-13-12-13----12h13p12-13-------|
G|-----------------------------------------------------------------|
D|-----------------------------------------------------------------|
A|-----------------------------------------------------------------|
E|-----------------------------------------------------------------|

Solo 2:

(with intro fig.)
e|---------------------------------|
B|---------------------------------|
G|---------------------------------|
D|---------------------------------|
A|-2h3p2-0h2p0-------0-2-3---2-3---|
E|-------------3---3-------------3-|X2

Bridge:

I guess here guitar 1 plays intro fig. while guitar 2 plays something like that 
(with little dist.) :
e|-------0--------|-------3--------|---------------|-0---------------|
B|----------------|----------0---0-|------1--1---1-|---1---3p1-1---1-|
G|----------0-----|----------------|---------------|-------------2---|
D|----------------|----------------|----2------2---|-----2-----------|
A|----2---------0-|----2-------2---|-3-------------|-----------------|
E|-1----------0---|-3--------------|---------------|-----------------|

e|-------0--------|-------3--------|---------------|-----------------|
B|----------------|----------------|------1--1-----|-0h1---3p1-1-0---|
G|----------0-----|----------0---0-|-------------0-|---------------0-|
D|----------------|----------------|----2------2---|-----2-----------|
A|----2---------0-|----2-------2---|-3-------------|-----------------|
E|-1----------0---|-3--------------|---------------|-----------------|


Outro: (play intro fig., in the end play it a bit slower and end with Em)

I hope it's at least 89% right.
Enjoy playing!

Tap to rate this tab
# A B C D E F G H I J K L M N O P Q R S T U V W X Y Z