Song name
# A B C D E F G H I J K L M N O P Q R S T U V W X Y Z

Seether - Untitled Instrumental tab

-------------------------------------------------------------------------------
			     UNTITLED (INSTRUMENTAL) - Seether
-------------------------------------------------------------------------------
Tabbed by:josethejalapeno
Email:nice-beard@hotmail.com

Tuning:Drop D then down another half-step

I wasn't able to tab out the intro. 
Pretty easy song. This is my first tab so email me and give me feedback on what is wrong/right.
Enjoy.

Riff:

G#|---------------------------------------------------------------------------|
A#|---------------------------------------------------------------------------|
F#|------7/8-7-------------7/10-10-99887--------------------------------------|X3
C#|-0----5/6-5---x--x-x----5/8--8--77665--------------------------------------|
G#|-0----5/6-5---x--x-x----5/8--8--77665--------------------------------------|
C#|-0----5/6-5---x--x-x----5/8--8--77665--------------------------------------|

G#|---------------------------------------------------------------------------|
A#|---------------------------------------------------------------------------|
F#|------7/8---14-14-12-12-10-10-7--------------------------------------------|X1
C#|-0----5/6---x--x--x--x--x--x--x--------------------------------------------|
G#|-0----5/6---12-12-10-10-8--8--5--------------------------------------------|
C#|-0----5/6------------------------------------------------------------------|

Verse:


G#|---------------------------------------------------------------------------|
A#|---------------------------------------------------------------------------|
F#|---------------------------------------------------------------------------|
C#|-0~~~~~~~~~~0 1--0~~~~~~~~~~~----------------------------------------------|
G#|-0~~~~~~~~~~0-1--0~~~~~~~~~~~----------------------------------------------|
C#|-0~~~~~~~~~~0-1--0~~~~~~~~~~~----------------------------------------------|

Bridge:


G#|---------------------------------------------------------------------------|
A#|---------------------------------------------------------------------------|
F#|---------------------------------------------------------------------------|
C#|-xx--xx---xxx-x-1----------------------------------------------------------|X18 on 5th and
G#|-xx--xx---xxx-x-1----------------------------------------------------------| 10th time of 
C#|-xx--xx---xxx-x-1----------------------------------------------------------|bridge play below

Bridge (5th and 10th)

G#|---------------------------------------------------------------------------|
A#|---------------------------------------------------------------------------|
F#|---------------------------------------------------------------------------|
C#|-xx--xx---xxx-x8-----------------------------------------------------------|
G#|-xx--xx---xxx-x8-----------------------------------------------------------|
C#|-xx--xx---xxx-x8-----------------------------------------------------------|

Order:

Intro
Verse
Riff
Intro
Verse X4
Bridge




************************************

| /   slide up
| \   slide down
| h   hammer-on
| p   pull-off
| ~   vibrato
| +   harmonic
| x   Mute note
| b   Bend
| pb  Pre-bend
| br  Bend release
| pbr Pre-bend release
| brb Bend release bend

************************************
Tap to rate this tab
 
# A B C D E F G H I J K L M N O P Q R S T U V W X Y Z