Song name
# A B C D E F G H I J K L M N O P Q R S T U V W X Y Z

Seether - Rise Above This tab

Seether - Rise Above This
Album - Finding Beauty in Negative Spaces

I don't exactly know what tuning they play this song in live or album but this tab is in 
C.

Guitar 1 (Rhythm) - Shaun Morgan
Guitar 2 (Lead) - Troy McLawhorn

Key:
x - Muted or Not Played
pm - Palm Muted, only if there is a . under the note in the pm line
h - Hammer on
p - Pull off
/ - Slide
b - Bend
v - Vibrato

Intro
Guitars 1 and 2
1-------------------------------------------|
2-------------------------------------------|
3-12-12-12-12-12-12-12-12-10-10-10-8-8-8-15-|    x2 Then
4-x--x--x--x--x--x--x--x--x--x--x--x-x-x-x--|
5-10-10-10-10-10-10-10-10-8--8--8--6-6-6-13-|
6-------------------------------------------|
pm

1----------------------------------------------|
2----------------------------------------------|
3-13-13-13-13-13-13-13-13-12-12-12-10-10-10-15-|    x2
4-x--x--x--x--x--x--x--x--x--x--x--x--x--x--x--|
5-11-11-11-11-11-11-11-11-10-10-10-8--8--8--13-|
6----------------------------------------------|
pm

Verse
Guitars 1 and 2
1-----------------            1-------------------------------------|
2-----------------            2-------------------------------------|
3-7-7-7-7-8-8-8-8-   x2 then  3-8-8-8-8-10-10-10-10-8-8-8-8-8-8-8-8-|
4-x-x-x-x-x-x-x-x-            4-x-x-x-x-x--x--x--x--x-x-x-x-x-x-x-x-|
5-5-5-5-5-6-6-6-6-            5-6-6-6-6-8--8--8--8--6-6-6-6-6-6-6-6-|
6-----------------            6-------------------------------------|
pm                            pm

Chorus
Guitars 1 and 2
1-------------------------------------------|
2-------------------------------------------|
3-12-12-12-12-12-12-12-12-10-10-10-8-8-8-15-|    x2 Then
4-x--x--x--x--x--x--x--x--x--x--x--x-x-x-x--|
5-10-10-10-10-10-10-10-10-8--8--8--6-6-6-13-|
6-------------------------------------------|
pm

1----------------------------------------------|
2----------------------------------------------|
3-13-13-13-13-13-13-13-13-12-12-12-10-10-10-15-|    x2
4-x--x--x--x--x--x--x--x--x--x--x--x--x--x--x--|
5-11-11-11-11-11-11-11-11-10-10-10-8--8--8--13-|
6----------------------------------------------|
pm

Verse 2
Guitars 1 and 2
1-----------------            1-------------------------------------|
2-----------------            2-------------------------------------|
3-7-7-7-7-8-8-8-8-   x2 then  3-8-8-8-8-10-10-10-10-8-8-8-8-8-8-8-8-|
4-x-x-x-x-x-x-x-x-            4-x-x-x-x-x--x--x--x--x-x-x-x-x-x-x-x-|
5-5-5-5-5-6-6-6-6-            5-6-6-6-6-8--8--8--8--6-6-6-6-6-6-6-6-|
6-----------------            6-------------------------------------|
pm                            pm

After both guitars have played through the last riff Guitar 2 plays the riff below and 
1 repeats the verse.
1-----------------------------------18b-15b--------18b-15b-------|
2-11---------------11-13--------------------16-------------16/18-|
3----10h12-12p10/8-------12-12/10/8------------15v---------------|
4----------------------------------------------------------------|
5----------------------------------------------------------------|
6----------------------------------------------------------------|
pm

Solo
Guitar 1
1-----------------            1-------------------------------------|
2-----------------            2-------------------------------------|
3-7-7-7-7-8-8-8-8-   x2 then  3-8-8-8-8-10-10-10-10-8-8-8-8-8-8-8-8-|
4-x-x-x-x-x-x-x-x-            4-x-x-x-x-x--x--x--x--x-x-x-x-x-x-x-x-|
5-5-5-5-5-6-6-6-6-            5-6-6-6-6-8--8--8--8--6-6-6-6-6-6-6-6-|
6-----------------            6-------------------------------------|

Guitar 2
1-----------------------------------18b-15b--------18b-15b-----------|
2-11---------------11-13--------------------16-------------16-18-16v-|
3----10h12-12p10/8-------12-12/10/8------------15v-------------------|
4--------------------------------------------------------------------|
5--------------------------------------------------------------------|
6--------------------------------------------------------------------|
pm

Bridge
Guitars 1 and 2
1---------------------------------|
2---------------------------------|
3-7-7-7-7-7-7-7-7-8-8-8-8-8-8-8-8-|     x4
4-x-x-x-x-x-x-x-x-x-x-x-x-x-x-x-x-|
5-5-5-5-5-5-5-5-5-6-6-6-6-6-6-6-6-|
6---------------------------------|
pm. . . . . . . . . . . . . . . .

Post Chorus
Guitar 1
1----------------------------------------------|
2----------------------------------------------|
3-13-13-13-13-13-13-13-13-12-12-12-10-10-10-15-|
4-x--x--x--x--x--x--x--x--x--x--x--x--x--x--x--|
5-11-11-11-11-11-11-11-11-10-10-10-8--8--8--13-|
6----------------------------------------------|
pm

Guitar 2
1-18b-15b----------|
2---------16-18-16-|
3------------------|
4------------------|
5------------------|
6------------------|
pm

Outro
Both Guitars
1-------------------------------------------|
2-------------------------------------------|
3-12-12-12-12-12-12-12-12-10-10-10-8-8-8-15-|    x4 Then Fade
4-x--x--x--x--x--x--x--x--x--x--x--x-x-x-x--|
5-10-10-10-10-10-10-10-10-8--8--8--6-6-6-13-|
6-------------------------------------------|
pm

Song Order: Effects:
Intro       Light Distortion
Verse       Clean (Sounds good with Reverb)
Chorus      Distortion
Verse 2     Clean (Sounds good with Reverb)
Chorus      Distortion
Solo        Guitar 1 clean (Sounds good with Reverb) and Guitar 2 distortion
Bridge      Distortion
Chorus      Distortion
Post Chorus Distortion
Outro       Light Distortion

Lyrics:
Take the light, and darken everything around me
call the clouds and listen closely, I'm lost without you
Call your name every day when i feel so helpless
I'm fallin' down but I'll rise above this, rise above this

Hate the mind, regrets are better left unspoken
For all we know, this void will grow and
Everything's in vain, distressing you though it leaves me open
Feels so right, but I'll end this all before it gets me

Call your name every day, when i feel so helpless
I'm fallin' down, but I'll rise above this, rise above this
Call your name every day, when i seem so helpless
I'm fallin' down, but I'll rise above this, rise above this doubt

I'll mend myself before it gets me
(I'll mend myself before it gets me)
I'll mend myself before it gets me
(I'll mend myself before it gets me)

Call your name every day, when i feel so helpless
I'm fallin' down, but I'll rise above this, rise above this
Call your name every day, when i seem so helpless
I'm fallin' down, but I'll rise above this, rise above this
Forty eight ways to say that I'm feelin' helpless
Fallin' down, fallin down', but I'll rise above this, rise above this

Thanks for looking. please rate and comment
Tap to rate this tab
 
# A B C D E F G H I J K L M N O P Q R S T U V W X Y Z