Seether - Stay And Play tab

----------------------------------------------------------------------------
			     STAY AND PLAY - Seether
----------------------------------------------------------------------------
Tabbed by:Josethejalapeno
Email: nice-beard@hotmail.com

Tuning: Drop D then down another half-step

Whole song except solo.

email me for mistakes.

enjoy.

INTRO (Clean)

G#|------------------------------------------------------|
A#|------------------------------------------------------|
F#|------------------------------------------------------| X2
C#|-4--6--7-6------4--6--7-6-----4--6--7-6-6-6--9999-888-|
G#|-4--6--7-6------4--6--7-6-----4--6--7-6-6-6--9999-888-|
C#|-4--6--7-6------4--6--7-6-----4--6--7-6-6-6--9999-888-|


Verse (Distorted)

G#|-------------------------------------------------------------------|
A#|-------------------------------------------------------------------|
F#|-------------------------------------------------------------------| X4
C#|-2-2--6\7--6--2-2--6\7-6--2-2--6\7--6--2-2--9999-888---------------|
G#|-2-2--6\7--6--2-2--6\7-6--2-2--6\7--6--2-2--9999-888---------------|
C#|-2-2--6\7--6--2-2--6\7-6--2-2--6\7--6--2-2--9999-888---------------|
    * *          * *         * *          * *  

POST-CHORUS (Distorted)

G#|------------------------------------------------------------------------|
A#|------------------------------------------------------------------------|
F#|---------------------------------------------------------------------| X2
C#|-44444444--999-88-88----------------------------------------------------|
G#|-44444444--999-88-88----------------------------------------------------|
C#|-44444444--999-88-88----------------------------------------------------|


CHORUS (Distorted)

G#|------------------------------------------------------------------------|
A#|------------------------------------------------------------------------|
F#|----------------------------------------------------------------------|X4
C#|-2-2-6\7-6-6-6-9999-888-------------------------------------------------|
G#|-2-2-6\7-6-6-6-9999-888-------------------------------------------------|
C#|-2-2-6\7-6-6-6-9999-888-------------------------------------------------|
    * *

After-Chorus

G#|------------------------------------------------------------------------|
A#|------------------------------------------------------------------------|
F#|----------------------------------------|X4 *on 4th time let 4's ring out
C#|-5-5-5-4-4--------------------------------------------------------------|
G#|-5-5-5-4-4--------------------------------------------------------------|
C#|-5-5-5-4-4--------------------------------------------------------------|

Bridge (clean)

G#|------------------------------------------------------------------------|
A#|-------------------------------------------| * not exact amount of times 
F#|------------------------------------------------------------------------|
C#|-2-2-2-2-2-2-2-2-2-2-2-2-2-2-2-2-2-2-2-2-2-2-2-2-2-2-2------------------|
G#|-2-2-2-2-2-2-2-2-2-2-2-2-2-2-2-2-2-2-2-2-2-2-2-2-2-2-2------------------|
C#|-2-2-2-2-2-2-2-2-2-2-2-2-2-2-2-2-2-2-2-2-2-2-2-2-2-2-2------------------|
    * * * * * * * * * * * * * * * * * * * * * * * * * * * 

Bridge 2 (slightly distorted)

G#|------------------------------------------------------------------------|
A#|------------------------------------------------------------------------|
F#|------------------------------------------------------------------------|
C#|-2-2----2-2----2-2----2-2-----------------------------------------------|
G#|-2-2----2-2----2-2----2-2-----------------------------------------------|
C#|-2-2----2-2----2-2----2-2-----------------------------------------------|
    x x    x x    x x    x x 

End

G#|------------------------------------------------------------------------|
A#|------------------------------------------------------------------------|
F#|------------------------------------------------------------------------|
C#|-2-2-6\7-6--------------------------------------------------------------|
G#|-2-2-6\7-6--------------------------------------------------------------|
C#|-2-2-6\7-6--------------------------------------------------------------|

Song Order:

Intro
Verse
Post-chorus
Chorus
After-Chorus
Bridge
Verse
Post-Chorus
Chorus
After-Chorus
Solo
Bridge 2
Post-Chorus
Chorus
After-Chorus
End

************************************

| /   slide up
| \   slide down
| h   hammer-on
| p   pull-off
| ~   vibrato
| *   harmonic
| x   Mute note
| b   Bend
| pb  Pre-bend
| br  Bend release
| pbr Pre-bend release
| brb Bend release bend

************************************
Tap to rate this tab
 
# A B C D E F G H I J K L M N O P Q R S T U V W X Y Z