Seether - Fake It drum

Seether - Fake It
Drummer: John Humphrey

Tabbed by: RockDrummer

Note: Verse 3 is same as Verse 1

      Around the 1:00 mark, it changes to open hi-hats

      Solo has the same timing and beat as Verses, so play that and
      you can put your own fills in during the Solo


Drums start at 0:13

Verses 1, 2, & 3 (Fill changes for end of Verse 2)

H |o---o--o--o---o---o-o---o-o--o-o--o--o--o-o---o-o--o-o---o---o---o-o-----|o
S |----o-----o-o-----o-----o----o----o-o---o-----o----o-----o-o-----o-------|o
B |o-o----o-o----o-o---o-o---o-o--o-o---o-o--o-o---o-o--o-o-----o-o---o-o---|

H |o---o-o---o---o---o-o---o----------------|
S |----o-----o-o-----o-----o-ooooooooooooooo|
B |o-o---o-o-----o-o---o-o------------------|


Choruses (can be used in place of Solo)

Cr |0-------------------------0-------------------------0-----------------|
H  |----o-o---o-o---o-o---o-------o-o---o-o---o-o---o-------o-o---o-o---o-|
S  |----o-----o-----o-----o-o-----o-----o-----o-----o-o-----o-----o-----o-|
B  |o-o---o-o---o-o---o-o-----o-o---o-o---o-o---o-o-----o-o---o-o---o-o---|

Cr |-------0---------------------------------|
H  |o---o------o-o---o-----------------------|
S  |----o-o----o-----o-ooooooooooo-----------|
B  |o-o----o-o---o-o-------------------------|
T1 |------------------------------ooo--------|
T2 |---------------------------------oo------|
FT |-----------------------------------oooooo|

Solo (not exact, but close)

     |-------------------------repeat 2x----------------------------------|
Cr |0--------------------------------------------------0------------------|
H  |----o-o--o-o---o-o---o---o---o-o---o-o---o-o---o-------o-o---o-o--o---|
S  |----o----o-----o-----o-o-----o-----o-----o-----o-o-----o-----o----o---|
B  |o-o---o-o--o-o---o-o-----o-o---o-o---o-o---o-o-----o-o---o-o---o-o----|

Cr |--------0------------------------0-|
H  |o---o-------o----------------------|
S  |----o-o-----o-oooooooooo-------o---|
B  |o-o-----o-o----------------o-----o-|
T1 |-------------------------o---------|
T2 |-------------------------o---o-----|
FT |-----------------------------o-----|
Tap to rate this tab
 
# A B C D E F G H I J K L M N O P Q R S T U V W X Y Z