Seether - Pass Slowly tab

-------------------------------------------------------------------------------
			     Pass Slowly - Seether
-------------------------------------------------------------------------------
Tabbed by:Jesse Wolfe
Email:fah_q000@live.com

Tuning:drop C

Intro(for the acoustic version on the deluxe dvd)

|----------------------------------------------------------------|
|---------1-----0-----0-1-0----------3-----1-----0h1p0-----------|
|-----------0-----0---------0----2-----2-----2---------2---------|
|----2--------2-----2--------------2-----2-----2---------2-------|
|--3---3-----------------------0---------------------------0-----|
|----------------------------------------------------------------|

|----------------------------------------------------------------|
|--------------------------------------------3-------------------|
|-------------------------------------0------0-------------------|
|--------5-----3-----3h5p3--------0-----0----0--(let ring)-------|
|----3-----3-----3---------3----2---2-----2--2-------------------|
|--3---3-----3-----3---------3-----------------------------------|


Verse:

|----------------------------------------------------------------|
|--1-----1----------3--------------------------------------------|
|--0-----2----5-----0--------------------------------------------|
|--2-----2----3-----0--------------------------------------------|
|--3-----0----3-----2--------------------------------------------|
|-------------3--------------------------------------------------|

Chorus:

|----------------------------------------------------------------|
|-(3)--1----1---------3------------------------------------------|
|-(0)--0----2----5----0------------------------------------------|
|-(0)--2----2----3----0------------------------------------------|
|-(2)--3----0----3----2------------------------------------------|
|----------------3-----------------------------------------------|

Bridge:

|----------------------------------------------------------------|
|--1----1---------3----------------------------------------------|
|--0----2----5----0----------------------------------------------|
|--2----2----3----0----------------------------------------------|
|--3----0----3----2----------------------------------------------|
|------------3---------------------------------------------------|

End on
|------------------------|
|---1--------------------|
|---0--------------------|
|---2--(let ring)--------|
|---3--------------------|
|------------------------|
Tap to rate this tab
 
# A B C D E F G H I J K L M N O P Q R S T U V W X Y Z