Song name
# A B C D E F G H I J K L M N O P Q R S T U V W X Y Z

Seether - Down tab

-------------------------------------------------------------------------------
			     DOWN - SEETHER
-------------------------------------------------------------------------------
Tabbed by: adamhero
Email: adam.metcalf@ymail.com

Tuning:CGCFAD
INTRO 
D|---------------------------------------------------------------------------|
A|---------------------------------------------------------------------------|
F|---4H5P4----------4H5P4----------------------------------------------------|
C|--3------3-4-3---3------3-4-3--2-2-4P2-222-2-4P2/-7-7-9P7-777-7------------|
G|-4------4-------4------4-------2-2-----222-2----/-7-7-----777-7------------|
C|-------------------------------2-2-----222-2----/-7-7-----777-7------------|
   XXX    XX      XXX    XX      X X     XXX        X X     XXX LET RING  
CHORUS
D|--------4444------4444------4444------4444---------------------------------|
A|--------4444------4444------4444------4444---------------------------------|
F|---6666-6666-6666-6666-6666-6666-6666-6666---444444-444444-666666-44444----|
C|---6666-6666-6666-6666-6666-6666-6666-6666---224444-224444-446666-22222----|
G|---4444-4444-4444-4444-4444-4444-4444-4444---222222-222222-444444-22222----|
C|---------------------------------------------222222-222222-444444-22222----|
VERSE  
 (ON THE VERSE REPEAT THE INTRO BIT TWICE)
D|---------------------------------------------------------------------------|
A|----------------------------------------------------------------9+---------|
F|---4H5P4----------4H5P4-----------------------------------------9+---------|
C|--3------3-4-3---3------3-4B---2-2-4P2-222-2-4P2/-7-7-9P7-777---9+---------|
G|-4------4-------4------4-------2-2-----222-2----/-7-7-----777---9+---------|
C|-------------------------------2-2-----222-2----/-7-7-----777--------------|
   XXX    XX      XXX    XX      X X     XXX        X X     XXX   
CHORUS
D|--------4444------4444------4444------4444---------------------------------|
A|--------4444------4444------4444------4444---------------------------------|
F|---6666-6666-6666-6666-6666-6666-6666-6666---444444-444444-666666-44444----|
C|---6666-6666-6666-6666-6666-6666-6666-6666---224444-224444-446666-22222----|
G|---4444-4444-4444-4444-4444-4444-4444-4444---222222-222222-444444-22222----|
C|---------------------------------------------222222-222222-444444-22222----|
BRIDGE 
e|---------------------------------------------------------------------------|
B|---------------------------------------------------------------------------|
G|-6---6-5-4-4-2-1/4---3B----------------------------------------------------|
D|-6---6-3-2-4-2-1/4---3B----------------------------------------------------|
A|-4---4-3-2-4-2-1/4---3B----------------------------------------------------|
E|-------3-2-4-2-1/4---3B----------------------------------------------------|
                       SLOW BEND 

NO SOLO OR SECOND GUITAR AS OF YET WILL UPDATE SOON AS I WORK IT OUT THE OUTRO IS JUST THE CHORUS 
PLAYED OVER A FEW TIMES IF I HAVE MISSED ANYTHING LET ME KNOW THANKS 


************************************

| /   slide up
| \   slide down
| h   hammer-on
| p   pull-off
| ~   vibrato
| +   harmonic
| x   Mute note
| b   Bend
| pb  Pre-bend
| br  Bend release
| pbr Pre-bend release
| brb Bend release bend

************************************
Tap to rate this tab
 
# A B C D E F G H I J K L M N O P Q R S T U V W X Y Z