Seether - Forsaken tab

Tabbed by: K&F
Email: tiagofcamaral@hotmail.com
This is my first tab, learned the song by ear, hope you enjoy it.
Help and constructive criticism are welcome.
Great song and my favorite band!

Song is played in Drop D + 1/2 step down.
Guitar 1: Troy McLawhorn
Guitar 2 & Vocals: Shaun Morgan

| ~  Vibrato
| x  Palm Mute Note
| / - slide up
| \ - slide down

A: [INTRO: Piano Intro tabbed out for Guitar]:
eb|-----------------------|
Bb|-10h11-13-11-10-11-11~-|
Gb|-----------------------|
Db|-----------------------|
Ab|-----------------------|
Db|-----------------------|

eb|-----------------------|
Bb|-10h11-13-11-10-11-11~-|
Gb|-----------------------|
Db|-----------------------|
Ab|-----------------------|
Db|-----------------------|

eb|-----------------------|
Bb|-10h11-13-11-10-11-11~-|
Gb|-----------------------|
Db|-----------------------|
Ab|-----------------------|
Db|-----------------------|

eb|-----------------------|
Bb|-10h11-13-11-10-8------|
Gb|-----------------------|
Db|-----------------------|
Ab|-----------------------|
Db|-----------------------|

B: [INTRO: Guitar]:
Guitar 1	X3				X4
Eb|------------------------------------||---------------------------------------|
Bb|------------------------------------||---------------------------------------|
Gb|*-----------------9-9-9-9-10-------*||-----------------9-9-9-9-10------------|
Db|*---------8-7-7-7------------10----*||---------8-7-7-7------------10-10/12---|
Ab|--7-5-5-5---------------------------||-7-5-5-5-------------------------------|
Db|------------------------------------||---------------------------------------|


C: [VERSE: Piano Intro tabbed out for Guitar]:
eb|--------------------|
Bb|--------------------|
Gb|--------------------|  Repeat throughout the verse, listen to the song to 
Db|-8----5----10/12----|  get the timing down.
Ab|--------------------|
Db|--------------------|


D: [CHORUS]:
  |		Guitar 1		   |
Eb|----------------------------------------|
Bb|----------------------------------------|
Gb|-------------------9-9-9-9-10-----------|
Db|----------8-7-7-7--------------10-------|
Ab|-7-5-5-5--------------------------------|
Db|----------------------------------------|
  |		Guitar 2		   |
Eb|----------------------------------------|----------------------------------------|
Bb|----------------------------------------|----------------------------------------|
Gb|-7-7-7-7-7-7-7-7-7----7-7-7-7-7-7-7-7-7-|----------------------------------------|
Db|-7-7-7-7-7-7-7-7-7-10-7-7-7-7-7-7-7-7-7-|-8-8-8-8-8-8-8-8-10-5-5-5-5-5-5-5-5-5---|
Ab|-5-5-5-5-5-5-5-5-5-10-5-5-5-5-5-5-5-5-5-|-8-8-8-8-8-8-8-8-10-5-5-5-5-5-5-5-5-5---|
Db|-------------------10-------------------|-8-8-8-8-8-8-8-8-10-5-5-5-5-5-5-5-5-5---|

  |		Guitar 1		   |
Eb|----------------------------------------|
Bb|----------------------------------------|
Gb|-------------------9-9-9-9-10-----------|
Db|----------8-7-7-7--------------10-------|
Ab|-7-5-5-5--------------------------------|
Db|----------------------------------------|
  |		Guitar 2		   |
Eb|----------------------------------------|----------------------------------------|
Bb|----------------------------------------|----------------------------------------|
Gb|-7-7-7-7-7-7-7-7-7----7-7-7-7-7-7-7-7-7-|----------------------------------------|
Db|-7-7-7-7-7-7-7-7-7-10-7-7-7-7-7-7-7-7-7-|-8-8-8-8-8-8-8-8-10-5-5-5-5-5-5-5-5-5---|
Ab|-5-5-5-5-5-5-5-5-5-10-5-5-5-5-5-5-5-5-5-|-8-8-8-8-8-8-8-8-10-5-5-5-5-5-5-5-5-5---|
Db|-------------------10-------------------|-8-8-8-8-8-8-8-8-10-5-5-5-5-5-5-5-5-5---|

  |		Guitar 1		   |
Eb|----------------------------------------|
Bb|----------------------------------------|
Gb|-------------------9-9-9-9-10-----------|
Db|----------8-7-7-7--------------10-------|
Ab|-7-5-5-5--------------------------------|
Db|----------------------------------------|
  |		Guitar 2		   |
Eb|----------------------------------------|----------------------------------------|
Bb|----------------------------------------|----------------------------------------|
Gb|-7-7-7-7-7-7-7-7-7----7-7-7-7-7-7-7-7-7-|----------------------------------------|
Db|-7-7-7-7-7-7-7-7-7-10-7-7-7-7-7-7-7-7-7-|-8-8-8-8-8-8-8-8-10-5-5-5-5-5-5-5-5-5---|
Ab|-5-5-5-5-5-5-5-5-5-10-5-5-5-5-5-5-5-5-5-|-8-8-8-8-8-8-8-8-10-5-5-5-5-5-5-5-5-5---|
Db|-------------------10-------------------|-8-8-8-8-8-8-8-8-10-5-5-5-5-5-5-5-5-5---|

  |		Guitar 1		   |
Eb|----------------------------------------|
Bb|----------------------------------------|
Gb|-------------------9-9-9-9-10-----------|
Db|----------8-7-7-7--------------10-10/12-|
Ab|-7-5-5-5--------------------------------|
Db|----------------------------------------|
  |		Guitar 2		   |
Eb|----------------------------------------|----------------------------------------|
Bb|----------------------------------------|----------------------------------------|
Gb|-7-7-7-7-7-7-7-7-7----7-7-7-7-7-7-7-7-7-|----------------------------------------|
Db|-7-7-7-7-7-7-7-7-7-10-7-7-7-7-7-7-7-7-7-|-8-8-8-8-8-8-8-8-10-5-5-5-5-5-5-5-5-5---|
Ab|-5-5-5-5-5-5-5-5-5-10-5-5-5-5-5-5-5-5-5-|-8-8-8-8-8-8-8-8-10-5-5-5-5-5-5-5-5-5---|
Db|-------------------10-------------------|-8-8-8-8-8-8-8-8-10-5-5-5-5-5-5-5-5-5---|

E: [Break/Bridge]:

Guitar 1
    x x x x x x x x x x
Eb|-------------------------|
Bb|-------------------------|
Gb|-------------------------| 2x
Db|-5-7-5-3-5-7-0-3-5-7-----| (Listen to the song to get the timing and the rhythm right)
Ab|-------------------------|
Db|-------------------------|

Guitar 2
Eb|----------------------------------------|
Bb|----------------------------------------|
Gb|-7-7-7-7-7-7-7-7-7----------------------|
Db|-7-7-7-7-7-7-7-7-7-10-10-10-10-10-10-10-|
Ab|-5-5-5-5-5-5-5-5-5-10-10-10-10-10-10-10-|
Db|-------------------10-10-10-10-10-10-10-|

|------------------------------------------|
|------------------------------------------| Just follow Shaun's singing
|------------------------------------------| to get the pattern and the 
|-8-8-8-8-8-8-8-8-8-8-5-5-5-5-5-5-5-5-5-5--| rhythm down.
|-8-8-8-8-8-8-8-8-8-8-5-5-5-5-5-5-5-5-5-5--|
|-8-8-8-8-8-8-8-8-8-8-5-5-5-5-5-5-5-5-5-5--|

    So hold me        down!            If I feed I'm stronger  I don't feel no longer!

Eb|----------------------------------------|------------------------------------------|
Bb|----------------------------------------|------------------------------------------|
Gb|-7-7-7-7-7-7-7-7-7----------------------|------------------------------------------|
Db|-7-7-7-7-7-7-7-7-7-10-10-10-10-10-10-10-|-8-8-8-8-8-8-8-8-8-8-5-5-5-5-5-5-5-5-5-5--|
Ab|-5-5-5-5-5-5-5-5-5-10-10-10-10-10-10-10-|-8-8-8-8-8-8-8-8-8-8-5-5-5-5-5-5-5-5-5-5--|
Db|-------------------10-10-10-10-10-10-10-|-8-8-8-8-8-8-8-8-8-8-5-5-5-5-5-5-5-5-5-5--|
    So hold me        down!            If I feed I'm stronger  I don't feel no longer!

Guitar Intro again but this time play it 4 times:

F: [Second Intro Repeat]:

Both Guitars:
Eb|-----------------------------------|
Bb|-----------------------------------|
Gb|-----------------9-9-9-9-10--------|
Db|---------8-7-7-7------------10-----|
Ab|-7-5-5-5---------------------------|
Db|-----------------------------------|

Eb|-----------------------------------|
Bb|-----------------------------------|
Gb|-----------------9-9-9-9-10--------|
Db|---------8-7-7-7------------10-----|
Ab|-7-5-5-5---------------------------|
Db|-----------------------------------|

Eb|-----------------------------------|
Bb|-----------------------------------|
Gb|-----------------9-9-9-9-10--------|
Db|---------8-7-7-7------------10-----|
Ab|-7-5-5-5---------------------------|
Db|-----------------------------------|

Eb|-----------------------------------|
Bb|-----------------------------------|
Gb|-----------------9-9-9-9-10--------|
Db|---------8-7-7-7------------10-----|
Ab|-7-5-5-5---------------------------|
Db|-----------------------------------|

G: [Outro:]
(Played while the above apart is being played and Shaun is singing, 
listen to the song to see what I mean)
eb|-----------------------|
Bb|-10h11-13-11-10-11-11~-| Repeat throughout this part.
Gb|-----------------------|
Db|-----------------------|
Ab|-----------------------|
Db|-----------------------|

Last time you hear it, it sounds something like this:

eb|---------------------------|
Bb|-10h11-13-13~-11-10-11-11~-| Just experiment, if you have a 
Gb|---------------------------| better idea of how it's supposed to sound,
Db|---------------------------| send me a message/comment.
Ab|---------------------------|
Db|---------------------------|
End the song on the Piano Intro:

eb|-----------------------|
Bb|-10h11-13-11-10-11-11~-| 3x
Gb|-----------------------|
Db|-----------------------|
Ab|-----------------------|
Db|-----------------------|

Last time, play it like this:

eb|-------------------0---|
Bb|-10h11-13-11-10-11-10--|
Gb|-----------------------|
Db|-----------------------|
Ab|-----------------------|
Db|-----------------------|
Tap to rate this tab
 
# A B C D E F G H I J K L M N O P Q R S T U V W X Y Z