Seether - Rise Above This Acoustic tab

Seether -- Rise Above This (Acoustic Version)
From the album Finding Beauty In Negative Spaces
Tabbed by TScala
*********************
Dropped D tuning (DADGBe)

Intro & Chorus:
e|------------------------------------------|
B|------------------------------------------|
G|11-11-11-11-11-11-11-11-9-9-9-7-7/14-14-xx|
D|x--x--x--x--x--x--x--x--x-x-x-x-x-x--x--xx|  [x2]
A|9--9--9--9--9--9--9--9--7-7-7-5-5/12-12-xx|
D|0--0--0--0--0--0--0--0--0-0-0-0-0-0--0--00|

e|---------------------------------------------|
B|---------------------------------------------|
G|12-12-12-12-12-12-12-12-11-11-11-9-9/14-14-xx|
D|x--x--x--x--x--x--x--x--x--x--x--x-x-x--x--xx|  [x2]
A|10-10-10-10-10-10-10-10-9--9--9--7-7/12-12-xx|
D|0--0--0--0--0--0--0--0--0--0--0--0-0-0--0--00|

Verse (Palm Mute):
e|------------------------------------------|
B|------------------------------------------|
G|11-11-11-11-11-11-11-11-9-9-9-7-7/14-14-xx|
D|x--x--x--x--x--x--x--x--x-x-x-x-x-x--x--xx|  [x2]
A|9--9--9--9--9--9--9--9--7-7-7-5-5/12-12-xx|
D|0--0--0--0--0--0--0--0--0-0-0-0-0-0--0--00|

e|---------------------------------------------|
B|---------------------------------------------|
G|12-12-12-12-12-12-12-12-11-11-11-9-9/14-14-xx|
D|x--x--x--x--x--x--x--x--x--x--x--x-x-x--x--xx|  [x2]
A|10-10-10-10-10-10-10-10-9--9--9--7-7/12-12-xx|
D|0--0--0--0--0--0--0--0--0--0--0--0-0-0--0--00|

Structure:
Intro x1
Verse x1
Chorus x1
Verse x2
Chorus x2
Intro x2

End On
e|---------------|
B|---------------|
G|7~~~~(Let ring)|
D|x--------------|
A|5~~~~(Let ring)|
D|0~~~~(Let ring)|

Legend:
x=Dead note
/=Slide up
~=Vibrato

If you have any corrections, email me at tscala2010@live.ca
Tap to rate this tab
 
# A B C D E F G H I J K L M N O P Q R S T U V W X Y Z